Cifras e Tablaturas
Larry Joe Taylor

Larry Joe Taylor

Third Coast

Cifras Cancelar Versão de Impressão

Larry Joe Taylor - Third Coast

Tom: B

  			Third Coast solo 
cd: Port A to Port B 
  
e-----0-1-3-1-0------0-1-1-1-1-0----- 
b-1-3-----------3--3-------------3-1- 
g------------------------------------ 
d------------------------------------ 
a------------------------------------ 
e------------------------------------ 
 
e-3-1-0---1p0--------------------------------------- 
b-------3-----3-1----------------------------------- 
g-----------------2p0---0--------------------------- 
d---------------------2---2p0-----2p0---0-----0----- 
a-------------------------------3-----3---2-3---2-3- 
e--------------------------------------------------- 
 
e----------------7-8--10-12-- 
b----------------8-10-12-13-- 
g----------5-7-9------------- 
d------5-7------------------- 
a-3-/7----------------------- 
e---------------------------- 
 

    	
fixar
fixar inscrever-se

enviado porenviado por: anônimo
cifra enviadaCorrigida por: sem correções
logo top cifrasComente
ico música do artistaMúsicas deste artista
ico curtiuCurtiu?
ico destaqueDestaque
Petaxxon Comunicação Online

Cifras.com.br - Melhor e mais completo site de cifras e tablaturas do Brasil Mais de 1 milhão de acordes de músicas cadastradas desde 2003
As informações contidas no nosso site são colaborações de seus usuários e podem conter erros, sendo assim, não nos responsabilizamos sobre nenhuma destas.

close
menos
mais
close
Cor dos acordes:

Cor da letra:

close
Alinhar acordes a direita Alinhar acordes a esquerda Alinhar acordes em baixo Alinhar acordes no topo
close
  Mostrar todos os acordes Esconder acordes muito fáceis Esconder acordes fáceis Esconder acordes intermediários
redimensionar
glossário