Cifras e Tablaturas
Leathermouth

Leathermouth

Leviathan

Cifras Cancelar Versão de Impressão

Leathermouth - Leviathan

Tom: C

  			Leviathan  
LeATHERMOUTH 
jjjddd 

Drop C 

-at the start, during the drum intro- 
D|--------| 
A|--------| 
F|--5-----| 
C|--5--4--| 
G|--3--4--| 
C|-----4--| 



D|------------------| 
A|------------------| 
F|------------------| 
C|--6-5-4-3-3-------| 
G|--4-3-4-5-5-5-----| 
C|------4-3-3-3-x11-|                  | 
              *                        |x2 
D|-------------------------------|     | 
A|-------------------------------| 
F|-------------------------------| 
C|-4-4-3-3-----------------------|x3 
G|-4-4-5-5-5-5-5-5-5-5-5-5-5-5-5-| 
C|-4-4-3-3-3-3-3-3-3-3-3-3-3-3-3-| 
           * * * * * * * * * * * 

             ----- 

D|--------| 
A|--------| 
F|--------| 
C|--6-5-4-| 
G|--4-3-4-| 
C|------4-|   "hes a killer.." 

D|--------------------------------| 
A|--------------------------------| 
F|--------------------------------| 
C|--------------------------------|x3 
G|-1--1-1-1-1-1-1-1-1-2-2-2-0-0-0-| 
C|--------------------------------| 

D|--------------------------| 
A|--------------------------| 
F|--------------------------| 
C|--------------------2-2-2-| 
G|-1--1-1-1-1-1-1-1-1-2-2-2-| 
C|--------------------2-2-2-| 


D|--------------------------| 
A|--------------------------| 
F|--------------------------| 
C|-8--8-8-8-8-8-8-8-8-9-7-7-|x3 
G|-8--8-8-8-8-8-8-8-8-9-7-7-| 
C|-8--8-8-8-8-8-8-8-8-9-7-7-| 

D|--------------------------| 
A|--------------------------| 
F|--------------------------| 
C|-8--8-8-8-8-8-8-8-8-2-2-2-| 
G|-8--8-8-8-8-8-8-8-8-2-2-2-| 
C|-8--8-8-8-8-8-8-8-8-2-2-2-| 




D|-------------------------------| 
A|-------------------------------| 
F|-------------------------------| 
C|-3-3-----------------------4-4-|x3 
G|-5-5-5-5-5-5-5-5-5-5-5-5-5-4-4-| 
C|-3-3-3-3-3-3-3-3-3-3-3-3-3-4-4-| 
       * * * * * * * * * * * 
                                           x2 
D|---------------------------------| 
A|---------------------------------| 
F|---------------------------------| 
C|-3-3-----------------------6-5-4-| 
G|-5-5-5-5-5-5-5-5-5-5-5-5-5-4-3-4-| 
C|-3-3-3-3-3-3-3-3-3-3-3-3-3-----4-| 
       * * * * * * * * * * * 



D|--------------------------------| 
A|--------------------------------| 
F|--------------------------------| 
C|--------------------------------|x3 
G|-1--1-1-1-1-1-1-1-1-2-2-2-0-0-0-| 
C|--------------------------------| 

D|--------------------------| 
A|--------------------------| 
F|--------------------------| 
C|--------------------2-2-2-| 
G|-1--1-1-1-1-1-1-1-1-2-2-2-| 
C|--------------------2-2-2-| 

D|--------------------------| 
A|--------------------------| 
F|--------------------------| 
C|-8--8-8-8-8-8-8-8-8-9-7-7-|x3 
G|-8--8-8-8-8-8-8-8-8-9-7-7-| 
C|-8--8-8-8-8-8-8-8-8-9-7-7-| 

D|--------------------------| 
A|--------------------------| 
F|--------------------------| 
C|-8--8-8-8-8-8-8-8-8-2-2-2-| 
G|-8--8-8-8-8-8-8-8-8-2-2-2-| 
C|-8--8-8-8-8-8-8-8-8-2-2-2-| 



-end- 
D|--------------------------| 
A|--------------------------| 
F|--------------------------| 
C|-1--1-1-1-1-1-1-1-1-2-0-0-|x3 
G|-1--1-1-1-1-1-1-1-1-2-0-0-| 
C|-1--1-1-1-1-1-1-1-1-2-0-0-| 
                                          x2 
D|--------------------------| 
A|--------------------------| 
F|--------------------------| 
C|-1--1-1-1-1-1-1-1-1-0-0-0-| 
G|-1--1-1-1-1-1-1-1-1-0-0-0-| 
C|-1--1-1-1-1-1-1-1-1-0-0-0-| 
    	
fixar
fixar inscrever-se

enviado porenviado por: hebealmeida
cifra enviadaCorrigida por: sem correções
logo top cifrasComente
ico música do artistaMúsicas deste artista
ico curtiuCurtiu?
ico destaqueDestaque
Petaxxon Comunicação Online

Cifras.com.br - Melhor e mais completo site de cifras e tablaturas do Brasil Mais de 1 milhão de acordes de músicas cadastradas desde 2003
As informações contidas no nosso site são colaborações de seus usuários e podem conter erros, sendo assim, não nos responsabilizamos sobre nenhuma destas.

close
menos
mais
close
Cor dos acordes:

Cor da letra:

close
Alinhar acordes a direita Alinhar acordes a esquerda Alinhar acordes em baixo Alinhar acordes no topo
close
  Mostrar todos os acordes Esconder acordes muito fáceis Esconder acordes fáceis Esconder acordes intermediários
redimensionar
glossário