Cifras e Tablaturas
Led Zeppelin

Led Zeppelin

Rock And Roll

Ano: 1971
Album : Led Zeppelin IV (aka ZOSO)

Cifras Cancelar Versão de Impressão
cifras

Led Zeppelin - Rock And Roll

fixar na tela  
Exibindo: vídeo-aula ver clipes redimensionar

Tom:

  
Intro  

e|----------------------------------------------------------------- 
B|----------------------------------------------------------------- 
G|----------------------------------------------------------------- 
D|-2--2--2--5--2--4------2--4--2-2-2--4--2------------------------- 
A|-0--3--0--0--0--0--3b4-0--0--0-0-0--0--0------------------------- 
E|----------------------------------------------------------------- 

e|----------------------------------------------------------------- 
B|----------------------------------------------------------------- 
G|-----------------------------------12-12------------------------- 
D|-2--2--2--5--2--4------2--4--2-2---11-11------------------------- 
A|-0--3--0--0--0--0--3b4-0--0--0-0--------------------------------- 
E|----------------------------------------------------------------- 

e|----------------------------------------------------------------- 
B|----------------------------------------------------------------- 
G|-----------------------------------12/11------------------------- 
D|-2--2--2--5--2--4------2--4--2-2---11/10------------------------- 
A|-0--3--0--0--0--0--3b4-0--0--0-0--------------------------------- 
E|----------------------------------------------------------------- 

e|----------------------------------------------------------------- 
B|-----------------------------------11/12------------------------- 
G|-2--2--2--5--2--4------2--4--2-2---10/11------------------------- 
D|-0--3--0--0--0--0--3b4-0--0--0-0--------------------------------- 
A|----------------------------------------------------------------- 
E|----------------------------------------------------------------- 

e|----------------------------------------------------------------- 
B|----------------------------------------------------------------- 
G|-----------------------------------12/13------------------------- 
D|-2--2--2--5--2--4------2--4--2-2---11/12------------------------- 
A|-0--3--0--0--0--0--3b4-0--0--0-0--------------------------------- 
E|----------------------------------------------------------------- 

e|----------------------------------------------------------------- 
B|----------------------------------------------------------------- 
G|---------------------------------13/12--------------------------- 
D|---------------------------------12/11--------------------------- 
A|-2--2--2--5--2--4------2--4--2-2--------------------------------- 
E|-0--3--0--0--0--0--3b4-0--0--0-0--------------------------------- 

e|----------------------------------------------------------------- 
B|----------------------------------------------------------------- 
G|----------------------------------------------------------------- 
D|-2--2--2--5--2--4------------------------------------------------ 
A|-0--3--0--0--0--0--3b4----------3p0------------------------------ 
E|------------------------0h2b3p0-----2p0-------------------------- 


Verse 1 

riff 1 2x 
e|----------------------------------------------------------------- 
B|----------------------------------------------------------------- 
G|----------------------------------------------------------------- 
D|---2----2-----2-----2--2--2-------------------------------------- 
A|---0----0-----0-----0--0--0-------------------------------------- 
E|-3----3-----3-----3---3--3--------------------------------------- 


riff2 
e|----------------------------------------------------------------- 
B|---3----3-----3-----3--3--3-------------------------------------- 
G|---2----2-----2-----2--2--2-------------------------------------- 
D|---0----0-----0-----0--0--0-------------------------------------- 
A|-3----3-----3-----3---3--3--------------------------------------- 
E|----------------------------------------------------------------- 


riff 3 
e|----------------------------------------------------------------- 
B|----------------------------------------------------------------- 
G|----------------------------------------------------------------- 
D|-9--9--11-9--9--9--11-9--9--9--11-9--9--9--11---7---------------- 
A|-7--7--7--7--7--7--7--7--7--7--7--7--7--7--7----5---------------- 
E|----------------------------------------------------------------- 


Solo 

e|----------------------------------------------------------------- 
B|----------------------------------------------------------------- 
G|----------------------------------------------------------------- 
D|----------------------------------------------------------------- 
A|-3p0---0--3p0---0--3p0---0--3p0---0------------------------------ 
E|-----3--------3--------3--------3-------------------------------- 

e|----------------------------------------------------------------- 
B|----------------------------------------------------------------- 
G|----------------------------------------------------------------- 
D|-2p0---0--2p0---0--2p0---0--2p0---0------------------------------ 
A|-----3--------3--------3--------3-------------------------------- 
E|----------------------------------------------------------------- 

e|----------------------------------------------------------------- 
B|----------------------------------------------------------------- 
G|-2p0---0-2p0---0-2p0---0-2p0----0-------------------------------- 
D|-----2-------2-------2-------2----------------------------------- 
A|----------------------------------------------------------------- 
E|----------------------------------------------------------------- 


e|----------------------------------------------------------------- 
B|-5p2---2--5p2---2---5p2---2---5p2---2---------------------------- 
G|-----0--------0---------0---------0------------------------------ 
D|----------------------------------------------------------------- 
A|----------------------------------------------------------------- 
E|----------------------------------------------------------------- 

e|---------------5--------------------------------5....------------ 
B|-------------5--------------------------------5------------------ 
G|-----5h7-7b9------7b9r7-5---7-5-------5-7-7b9-------------------- 
D|-5h7----------------------7-----7-5-7---------------------------- 
A|----------------------------------------------------------------- 
E|----------------------------------------------------------------- 

e|----------------------------------------------------------------- 
B|-8p5---5--9p6---6--10p7---7--11p8----8--13p10----10-10----------- 
G|-----7--------8---------9---------10----------12----------------- 
D|----------------------------------------------------------------- 
A|----------------------------------------------------------------- 
E|----------------------------------------------------------------- 

e|----------------------------------------------------------------- 
B|-13b15r13b17r13--10----13-12-10----12b13r12-10----12b13r12-10---- 
G|--------------------12----------11-------------11-------------11- 
D|----------------------------------------------------------------- 
A|----------------------------------------------------------------- 
E|----------------------------------------------------------------- 

e|-----------------12-----------15----15----15----15--------------- 
B|-10-12-10--10-10----12b13-10--15b17-15b17-15b17-15b17------------ 
G|----------------------------------------------------------------- 
D|----------------------------------------------------------------- 
A|----------------------------------------------------------------- 
E|----------------------------------------------------------------- 

e|----------------------------------------------------------------- 
B|-15-13-15-15b17-13b14-------------------------------------------- 
G|----------------------14----------------------------------------- 
D|----------------------------------------------------------------- 
A|----------------------------------------------------------------- 
E|----------------------------------------------------------------- 

e|------------------------------------8b10r8-5--------------------- 
B|-8p5---5--8p5---5--8p5---5--8p5---5----------5-8----------------- 
G|-----7--------7--------7--------7----------------7--------------- 
D|----------------------------------------------------------------- 
A|----------------------------------------------------------------- 
E|----------------------------------------------------------------- 

e|----------------------------------------------------------------- 
B|-8p5---5--8p5---5--8p5---5--8p5---5------------------------------ 
G|-----7--------7--------7-------7--------------------------------- 
D|----------------------------------------------------------------- 
A|----------------------------------------------------------------- 
E|----------------------------------------------------------------- 

e|----------------------------------------------------------------- 
B|-----------------7----------------------------------------------- 
G|-7---7-5-7-5---7----7-5-7-5-------------------------------------- 
D|-------------7--------------7------------------------------------ 
A|----------------------------------------------------------------- 
E|----------------------------------------------------------------- 



Special 

2x 

e|----------------------------------------------------------------- 
B|----------------------------------------------------------------- 
G|----------------------------------------------------------------- 
D|-2--2--2--5--2--4------2--4--2-2-2--4--2------------------------- 
A|-0--3--0--0--0--0--3b4-0--0--0-0-0--0--0------------------------- 
E|----------------------------------------------------------------- 

2x 
e|----------------------------------------------------------------- 
B|------------------------------5-5-------------------------------- 
G|------------------------------5-5-------------------------------- 
D|-2--2--2--5--2--4-----------------7p5-7-------------------------- 
A|-0--3--0--0--0--0--3b4------------------------------------------- 
E|----------------------------------------------------------------- 


e|----------------------------------------------------------------- 
B|------------------------------5-5-------------------------------- 
G|-2--2--2--5--2--4-------------5-5-------------------------------- 
D|-0--3--0--0--0--0--3b4------------7p5-7-------------------------- 
A|----------------------------------------------------------------- 
E|----------------------------------------------------------------- 

e|----------------------------------------------------------------- 
B|------------------------------5-5-------------------------------- 
G|------------------------------5-5-------------------------------- 
D|-2--2--2--5--2--4-----------------7p5-7-------------------------- 
A|-0--3--0--0--0--0--3b4------------------------------------------- 
E|----------------------------------------------------------------- 

e|----------------------------------------------------------------- 
B|------------------------------5-5-------------------------------- 
G|------------------------------5-5-------------------------------- 
D|----------------------------------7p5-7-------------------------- 
A|-2--2--2--5--2--4------------------------------------------------ 
E|-0--3--0--0--0--0--3b4------------------------------------------- 

e|----------------------------------------------------------------- 
B|------------------------------5-5-------------------------------- 
G|------------------------------5-5-------------------------------- 
D|-2--2--2--5--2--4-----------------7p5-7-------------------------- 
A|-0--3--0--0--0--0--3b4------------------------------------------- 
E|----------------------------------------------------------------- 


e|---|--------------|--------------------------------------------- 
B|-2-|--------------|--------------------------------------------- 
G|-0-|--------------|--------------------------------------------- 
D|---|-5p2p0h2p0----|-2--2--2--5--2--4------2--4--2-2-2--4-2------ 
A|---|-----------3~-|-0--3--0--0--0--0--3b4-0--0--0-0-0--0-0------ 
E|---|--------------|--------------------------------------------- 



e|---------------------------------------------------------------- 
B|---------------------------------------------------------------- 
G|---------------------------------------------------------------- 
D|-2--2--2--5--2--4------2--4--2-2-2--4--------------------------- 
A|-0--3--0--0--0--0--3b4-0--0--0-0-0--0--------------------------- 
E|---------------------------------------------------------------- 


e|---------------------------------------------------------------- 
B|---------------------------------------------------------------- 
G|---------------------------------------------------------------- 
D|-9--9--11-9--9--9--11-9--9--9--11-9--9--9--11---7--------------- 
A|-7--7--7--7--7--7--7--7--7--7--7--7--7--7--7----5--------------- 
E|---------------------------------------------------------------- 


e|---------------------------------------------------------------- 
B|---------------------------------------------------------------- 
G|-0-------------------------------------------------------------- 
D|-5-------------------------------------------------------------- 
A|-4-5h7p5h7p5h7p5h7p5h7p5h7p5h7p5h7p5h7p5h7-5~------------------- 
E|-5-------------------------------------------------------------- 
  

top 5 | led zeppelin
top rock clássico
Outras músicas do artista letras do(a) Led Zeppelin
Top cifras »Top artistas »
Petaxxon Comunicação Online
Cifras.com.br - Melhor e mais completo site de cifras e tablaturas do Brasil
Mais de 1 milhão de acordes de músicas cadastradas desde 2003
As informações contidas no nosso site são colaborações de seus usuários e podem conter erros, sendo assim, não nos responsabilizamos sobre nenhuma destas.
close
menos
mais
close
Cor dos acordes:

Cor da letra:

 

save
close
close
 
redimensionar