Cifras e Tablaturas
Legião Urbana

Legião Urbana

1° de Julho

Compositor : (Renato Russo)

Cifras Cancelar Versão de Impressão Print

Legião Urbana - 1° de Julho

Tom: D

  			Intr. D  C  Am G (com pestana)    

RIFF 1(tocado em quase toda música)  
e|-2-2-2-3-2--2--2--3--2--|  
B|-3-3-3-3-3--3--3--3--3--|  
G|-2-2-2-2-2--2--2--2--2--|  
D|-0-0-0-0-0--0--0--0--0--|  
A|------------------------|  
E|------------------------|  

   RIFF 1  
   D            C          
Eu vejo que aprendi   
   Am           G         
O quanto te ensinei  
   D                 C        Am   G       
E nos teus braços que ele vai saber  
    D             C  
Não há por que voltar  
    Am            G  
Não penso em te seguir  
   D               C      Am  G  
Não quero mais a tua insensatez  
      G                      D  
O que fazes sem pensar aprendeste do olhar  
    Em          Am               D    D  C  Am  G  C  G   
E das palavras que aguardei prá ti  

  D      C      Am            C      G  
e|-5-5-5--3-3-3-3--7-7-7--7-7-7-7---------------|  
B|-5-5-5--3-3-3-3--7-7-7--7-7-7-7-5-5-5--3-3-3-3|  
G|--------------------------------5-5-5--4-4-4-4|  
D|----------------------------------------------|  
A|----------------------------------------------|  
E|----------------------------------------------|  

D                  C  
Não penso em me vingar  
 Am         G  
  Não sou assim  
  D               C      Am G  
A tua insegurança era por mim  
   D             C  
Não basta o compromisso  
     Am          G  
Vale mais o coração  
    D           C               Am  
Já que não me entendes, não me julgues  
        G  
Não me tente  
    G                   
O que sabes fazer agora  
       Em         
Veio tudo de nossas horas  
          G          A      D    D  C  Am  G  C  G   
Eu não minto, eu não sou assim  

  D      C      Am            C      G     
e|-5-5-5--3-3-3-3--7-7-7--7-7-7-7---------------|  
B|-5-5-5--3-3-3-3--7-7-7--7-7-7-7-5-5-5--3-3-3-3|  
G|--------------------------------5-5-5--4-4-4-4|  
D|----------------------------------------------|  
A|----------------------------------------------|  
E|----------------------------------------------|  

   D                    C      Am            C      G  
e|-2-2-2--2-2-2-2--5-5-5--3-3-3-3--7-7-7--7-7-7-7---------------|  
B|-3-3-3--3-3-3-3--5-5-5--3-3-3-3--7-7-7--7-7-7-7-5-5-5--3-3-3-3|  
G|------------------------------------------------5-5-5--4-4-4-4|  
D|--------------------------------------------------------------|  
A|--------------------------------------------------------------|  
E|--------------------------------------------------------------|  

     D                   G  
Ninguém sabia e ninguém viu  
          D                  G  
Que eu estava a teu lado então  
    G                Bm     Em               F#  
Sou fera, sou bicho,    sou anjo e sou mulher  
  G        Am  
Sou minha mãe e minha filha,   
         D  
Minha irmã, minha menina  
        G                 Bm       Em             F#  G  
Mas sou minha, só minha        e não de quem quiser  
     Am                      D      Bm   C   D  / D     Bm  C   D /2X  
Sou Deus, tua deusa, meu amor  
e|-------------------|  
B|7-8-8-8-8-8-8-8-7-7|  
G|-------------------|  
D|-------------------|  
A|-------------------|  
E|-------------------|  
  D            Bm    C  
Alguma coisa aconteceu  
  D                 Bm   C     D   G   C  
Do ventre nasce um novo coração  

   D            G            C       
e|-2-2-2-2-2-2--7-7-7-7-7-7--12-12-12-12-----|  
B|-3-3-3-3-3-3--8-8-8-8-8-8--13-13-13-13-...-|  
G|-2-2-2-2-2-2--7-7-7-7-7-7--12-12-12-12-----|  
D|-------------------------------------------|  
A|-------------------------------------------|  
E|-------------------------------------------|  
 G  
Não penso em me vingar  
Bm  Em             F#  G  
     Não sou assim  
   Am                  D     
A tua insegurança era por mim  
   G  
Não basta o compromisso  
Bm   Em  
Vale mais o coração  
F#  G      Am  
Ninguém sabia, ninguém viu  
          D  
Que eu estava ao teu lado então  
   G                 Bm   Em  
Sou fera, sou bicho,    sou anjo e sou mulher  
F#  G     Am  
Sou minha mãe e minha filha,   
      D  
Minha irmã, minha menina  
   G                     Bm   Em                  F#  
Mas sou minha, só minha,     e não de quem quiser  
G    Am                  C  D      D  C  Am G /  D  C  Am G   
Sou Deus, tua deusa, meu amor                    uuuuh...  
 D    C     Am    G        D   C   Am  G   
Baby, baby, baby, baby     yeah  
      D            C  
O que fazes por sonhar  
    Am           G     D   C         Am  G         
É o mundo que virá prá ti    e para mim  
G           D                       Em   A  
 Vamos descobrir o mundo juntos baby  
D                    G           Em  
Quero aprender com o teu pequeno grande coração  
      G   A        D        
Meu amor,    meu amor  
    
e|-5-5-5--3-3-3-3-|  
B|-5-5-5--3-3-3-3-|  

 C   Bm    C      D  
Ahhh....     Baby 
    	

enviado porenviado por: Elton_Esqui
cifra enviadaCorrigida por: sem correções
logo top cifrasComente
ico música do artistaMúsicas deste artista
ico curtiuCurtiu?
ico destaqueDestaque
Petaxxon Comunicação Online

Cifras.com.br - Melhor e mais completo site de cifras e tablaturas do Brasil Mais de 1 milhão de acordes de músicas cadastradas desde 2003
As informações contidas no nosso site são colaborações de seus usuários e podem conter erros, sendo assim, não nos responsabilizamos sobre nenhuma destas.

close
menos
mais
close
Cor dos acordes:

Cor da letra:

close
Alinhar acordes a direita Alinhar acordes a esquerda Alinhar acordes em baixo Alinhar acordes no topo
close
  Mostrar todos os acordes Esconder acordes muito fáceis Esconder acordes fáceis Esconder acordes intermediários
redimensionar
glossário