Cifras e Tablaturas
Legião Urbana

Legião Urbana

Conexão Amazônica

Ano: 1987
Album : Que País É Este

Cifras Cancelar Versão de Impressão Print

Legião Urbana - Conexão Amazônica

Tom: F

  			Aqui vai o solo de guitarra: 
 
E----------------------------------------------------- 
B-0--3--0--3--0---0--3-0-------0---------------------- 
G--------------------------2-------------------------- 
D----------------------------------------------------- 
A----------------------------------------------------- 
E----------------------------------------------------- 
 
Aqui vem o solo de violão que acompanha o solo da 
guitarra: 
 
E----------------------------------------------------- 
B-0-0-0---0---2--3--2--0----0--2--3---3-3-3-3-2------- 
G-------2-----------------2--------------------------- 
D----------------------------------------------------- 
A----------------------------------------------------- 
E----------------------------------------------------- 
 
E no final, um solo bem simples de violão: 
 
E----------------------------------------------------- 
B--3-3-3-3--2-3-2-3/5--5--5--------------------------- 
G----------------------------------------------------- 
D----------------------------------------------------- 
A----------------------------------------------------- 
E----------------------------------------------------- 

    	

enviado porenviado por: Electro
cifra enviadaCorrigida por: sem correções
logo top cifrasComente
ico música do artistaMúsicas deste artista
ico curtiuCurtiu?
ico destaqueDestaque
Petaxxon Comunicação Online

Cifras.com.br - Melhor e mais completo site de cifras e tablaturas do Brasil Mais de 1 milhão de acordes de músicas cadastradas desde 2003
As informações contidas no nosso site são colaborações de seus usuários e podem conter erros, sendo assim, não nos responsabilizamos sobre nenhuma destas.

close
menos
mais
close
Cor dos acordes:

Cor da letra:

close
Alinhar acordes a direita Alinhar acordes a esquerda Alinhar acordes em baixo Alinhar acordes no topo
close
  Mostrar todos os acordes Esconder acordes muito fáceis Esconder acordes fáceis Esconder acordes intermediários
redimensionar
glossário