Cifras e Tablaturas
Legião Urbana

Legião Urbana

Há Tempos

Ano: 1990
Album : As Quatro Estações
Compositor : (Dado Villa-Lobos / Renato Russo / Marcelo Bonfá)

Cifras Cancelar Versão de Impressão Print

Legião Urbana - Há Tempos

Tom: D

  			Acompanha a música inteira acompanha pela seqüência de  
acorde ( D, Am7 ) A segunda tablatura é acompanhada pela 
seqüência (... Am7, G ) 
 
Exemplo: 
Ter bondade é ter coragem ( assim, você usa a segunda 
tablatura ) 
 
 
E-5-3-2-3-2-0-----3-3-3-3-3-3-2---------------------- 
B--------------3------------------------------------- 
G---------------------------------------------------- 
D---------------------------------------------------- 
A---------------------------------------------------- 
E---------------------------------------------------- 
 
E-5-3-2-3-2-0---------------------------------------- 
B--------------3-------1-1-0------------------------- 
G---------------------------------------------------- 
D---------------------------------------------------- 
A---------------------------------------------------- 
E---------------------------------------------------- 

    	

enviado porenviado por: Electro
cifra enviadaCorrigida por: sem correções
logo top cifrasComente
ico música do artistaMúsicas deste artista
ico curtiuCurtiu?
ico destaqueDestaque
Petaxxon Comunicação Online

Cifras.com.br - Melhor e mais completo site de cifras e tablaturas do Brasil Mais de 1 milhão de acordes de músicas cadastradas desde 2003
As informações contidas no nosso site são colaborações de seus usuários e podem conter erros, sendo assim, não nos responsabilizamos sobre nenhuma destas.

close
menos
mais
close
Cor dos acordes:

Cor da letra:

close
Alinhar acordes a direita Alinhar acordes a esquerda Alinhar acordes em baixo Alinhar acordes no topo
close
  Mostrar todos os acordes Esconder acordes muito fáceis Esconder acordes fáceis Esconder acordes intermediários
redimensionar
glossário