Cifras e Tablaturas
Legião Urbana

Legião Urbana

Há Tempos (ver. 2)

Compositor : (Dado Villa-Lobos / Renato Russo / Marcelo Bonfá)

Cifras Cancelar Versão de Impressão Print

Legião Urbana - Há Tempos (ver. 2)

Tom:

  			tablatura solo inicial 
 
    D                                       Am  
e/-----5-------3-----2-----3--2---------------0--------- 
b/-------3-------3-----3----------3-------------1------- 
g/---2-----2-------2-----2----------2------2------------- 
 D/-0----------------------------------------------------  
 A/---------------------------------------0---------0----  
 E/------------------------------------------------------  
        
e/-----0-------0-------0--------0----------------------- 
b/-------1-------1--------1-------1--------------------- 
g/------------------------------------------------------ 
 D/------------------------------------------------------  
 A/----------0-------0--------0--------------------------  
 E/------------------------------------------------------  
    D                                   G  
e/-----5------3------2----3--2------------3------3------ 
b/-------3------3------3-------3------------3------3---- 
g/---2-----2------2-----2--------2-----0---------------- 
 D/-0----------------------------------------------------  
 A/------------------------------------------------------  
 E/-----------------------------------3---------3--------  
  
e/------3---------3--------3---||----------------------- 
b/--------3---------3--------3-||----------------------- 
g/----------------------------º||----------------------- 
 D/-----------------------------||-----------------------  
 A/----------------------------º||-----------------------  
 E/--3---------3--------3-------||-----------------------  
                               ^ 
                               | 
                               | 
isto é o ritornello indica que o trecho deve ser repetido 
nesta tablatura você vai repetir tudo do começo ao fim 
    	

enviado porenviado por: Derson #
cifra enviadaCorrigida por: sem correções
logo top cifrasComente
ico música do artistaMúsicas deste artista
ico curtiuCurtiu?
ico destaqueDestaque
Petaxxon Comunicação Online

Cifras.com.br - Melhor e mais completo site de cifras e tablaturas do Brasil Mais de 1 milhão de acordes de músicas cadastradas desde 2003
As informações contidas no nosso site são colaborações de seus usuários e podem conter erros, sendo assim, não nos responsabilizamos sobre nenhuma destas.

close
menos
mais
close
Cor dos acordes:

Cor da letra:

close
Alinhar acordes a direita Alinhar acordes a esquerda Alinhar acordes em baixo Alinhar acordes no topo
close
  Mostrar todos os acordes Esconder acordes muito fáceis Esconder acordes fáceis Esconder acordes intermediários
redimensionar
glossário