Cifras e Tablaturas
Legião Urbana

Legião Urbana

indios (ver. 2)

Cifras Cancelar Versão de Impressão Print

Legião Urbana - indios (ver. 2)

Tom: C

  			Índios (Legião Urbana) 
 
Introdução: 
e|-3---3-3----5--7--2--------| 
B|------------------3---5--33| X3 
G|-4--4-4-4---5--7------5--44| 
 
B|---8-7-8---8-7-8---8-7-8---8-7-8----10-8-10---10-8-10---10-8-10---10-8-10-| 
G|-5-------5-------5-------5--------7---------7---------7----------7--------| 
 
B|---12-10-12---12-10-12----12-10-12---12-10-12-- e|--7-5-7---7-5-7---7-5-7---7-5-7-| 
G|-9----------9-----------9----------9----------- B|-5-------5-------5-------5------- | 
 
e|---8-7-8---8-7-8---8-7-8---8-7-8----8-7-8---8-7-8---8-7-8---8-7-8-| 
B|-5-------5-------5-------5--------7-------7-------7-------7-------| 
 
e|---10-8-10---10-8-10---10-8-10---10-8-10-| 
B|-7---------7---------7---------7---------| 
 
e|---10-8-10---10-8-10---10-8-10---10-8-10-| 
B|-8---------8---------8---------8---------| 
 
  
 
 segunda parte 
 
 
B|---8-7-8---8-7-8---8-7-8---8-7-8----10-8-10---10-8-10---10-8-10---10-8-10-| 
G|-5-------5-------5-------5--------7---------7---------7----------7--------| 
 
B|---12-10-12---12-10-12----12-10-12---12-10-12-- e|--7-5-7---7-5-7---7-5-7---7-5-7-| 
G|-9----------9-----------9----------9----------- B|-5-------5-------5-------5------- | 
 
e|---8-7-8---8-7-8---8-7-8---8-7-8----8-7-8---8-7-8---8-7-8---8-7-8-| 
B|-5-------5-------5-------5--------7-------7-------7-------7-------| 
 
e|---10-8-10---10-8-10---10-8-10---10-8-10-| 
B|-7---------7---------7---------7---------| 
 
e|---10-8-10---10-8-10---10-8-10---10-8-10-| 
B|-8---------8---------8---------8---------| 
 
 

    	

enviado porenviado por: patryck (RN)
cifra enviadaCorrigida por: sem correções
logo top cifrasComente
ico música do artistaMúsicas deste artista
ico curtiuCurtiu?
ico destaqueDestaque
Petaxxon Comunicação Online

Cifras.com.br - Melhor e mais completo site de cifras e tablaturas do Brasil Mais de 1 milhão de acordes de músicas cadastradas desde 2003
As informações contidas no nosso site são colaborações de seus usuários e podem conter erros, sendo assim, não nos responsabilizamos sobre nenhuma destas.

close
menos
mais
close
Cor dos acordes:

Cor da letra:

close
Alinhar acordes a direita Alinhar acordes a esquerda Alinhar acordes em baixo Alinhar acordes no topo
close
  Mostrar todos os acordes Esconder acordes muito fáceis Esconder acordes fáceis Esconder acordes intermediários
redimensionar
glossário