Cifras e Tablaturas
Legião Urbana

Legião Urbana

Índios (Ver. Acústico MTV)

Cifras Cancelar Versão de Impressão Print

Legião Urbana - Índios (Ver. Acústico MTV)

Tom: Am

  			Introdução:riff 1 renato 
dado 
e|-3---3-3----5--7--2-------------| 
B|------------------3---5--3--3-3-| X3 
G|-4--4-4-----5--7------5--4-4-4--| 
 
B|---8-7-8---8-7-8---8-7-8---8-7-8----10-8-10---10-8-10---10-8-10---10-8-10-| 
G|-5-------5-------5-------5--------7---------7---------7----------7--------| 
 
B|---12-10-12---12-10-12----12-10-12---12-10-12-- e|--7-5-7---7-5-7---7-5-7---7-5-7-| 
G|-9----------9-----------9----------9----------- B|-5-------5-------5-------5------- | 
 
e|---8-7-8---8-7-8---8-7-8---8-7-8----8-7-8---8-7-8---8-7-8---8-7-8-| 
B|-5-------5-------5-------5--------7-------7-------7-------7-------| 
 
e|---10-8-10---10-8-10---10-8-10---10-8-10-| 
B|-7---------7---------7---------7---------| 
 
e|---10-8-10---10-8-10---10-8-10---10-8-10-| 
B|-8---------8---------8---------8---------| 
 
Vou chamar a base da musica de riff 1,ok.obs esse riff 1 e feito 
 pelo renato tbm na introduçao,pois quem faz essa tab acima e o dado. 
riff 1 
 
e|---0-0-0-0-0-0-0-0-2-2-2-2-0-0-0-0-| 
B|--1-1-1-1-3-3-3-3-3-3-3-3-0-0-0-0--| 
G|-0-0-0-0-0-0-0-0-4-4-4-4-0-0-0-0---| 
D|---------------------------2---2---| 
A|-3---3---5---5---2---2---2---2-----| 
E|---3---3---5---5---2---2-----------| 
 
 
 
 
riff 1 
Quem me dera, ao menos uma vez, 
          
Ter de volta todo ouro que entreguei 
              
A quem conseguiu me convencer que era prova de amizade 
      
Se alguém levasse embora até o que eu não tinha 
riff1 
Quem me dera, ao menos uma vez, 
       
Esquecer que acreditei que era por brincadeira 
      
Que se cortava sempre um pano-de-chão 
    
De linho nobre e pura seda. 
riff 1 
Quem me dera, ao menos uma vez, 
       
Explicar o que ninguém consegue entender: 
                                           
Que o que aconteceu ainda está por vir e o futuro não é mais como era antigamente. 
riff 1 
Quem me dera, ao menos uma vez, 
     
Provar que quem tem mais do que precisa ter 
        
Quase sempre se convence que não tem o bastante 
    
E fala demais por não ter nada a dizer 
riff 1 
Quem me dera, ao menos uma vez, 
             
Que o mais simples fosse visto como o mais importante, 
 
Mas nos deram espelhos 
    
E vimos um mundo doente. 
riff 1 
Quem me dera, ao menos uma vez, 
       
Entender como um só Deus ao mesmo tempo é três 
         
E esse mesmo Deus foi morto por vocês 
          
É só maldade então, deixar um Deus tão triste 
 
Refrão: 
 C  Bm            Am             D 
  Eu quis o perigo e até sangrei sozinho 
    G      D/F#                 Em 
Entenda, assim pude trazer você de volta pra mim, 
        C            Bm            Am 
Quando descobri que é sempre só você 
         D           G       D/F# 
Que me entende do início ao fim 
  Em                   C                                        D 
E é só você que tem a cura para o meu vício de insistir nessa saudade que eu sinto 
             F             G 
De tudo que eu ainda não vi 
 
 
B|---8-7-8---8-7-8---8-7-8---8-7-8----10-8-10---10-8-10---10-8-10---10-8-10-| 
G|-5-------5-------5-------5--------7---------7---------7----------7--------| 
 
B|---12-10-12---12-10-12----12-10-12---12-10-12-- e|--7-5-7---7-5-7---7-5-7---7-5-7-| 
G|-9----------9-----------9----------9----------- B|-5-------5-------5-------5------- | 
 
e|---8-7-8---8-7-8---8-7-8---8-7-8----8-7-8---8-7-8---8-7-8---8-7-8-| 
B|-5-------5-------5-------5--------7-------7-------7-------7-------| 
 
e|---10-8-10---10-8-10---10-8-10---10-8-10-| 
B|-7---------7---------7---------7---------| 
 
e|---10-8-10---10-8-10---10-8-10---10-8-10-| 
B|-8---------8---------8---------8---------| 
 
riff 1 
Quem me dera, ao menos uma vez, 
      
Acreditar por um instante em tudo que existe 
     
E acreditar que o mundo é perfeito 
                             
E que todas as pessoas são felizes 
riff 1 
Quem me dera, ao menos uma vez, 
    
Fazer com que o mundo saiba que seu nome 
  
Está em tudo  e mesmo assim 
     
Ninguém lhe diz ao menos obrigado. 
riff 1 
Quem me dera, ao menos uma vez, 
                      
Como a mais bela tribo, dos mais belos índios, 
      
Não ser atacado por ser inocente. 
 
Refrão 
 
C                                        F 
Nos deram espelhos e vimos um mundo doente 
                           G    
Tentei chorar e não consegui. 
 
FINAL: 
C C/B C/E Bm Am G D/F# Em 
 
Proxima:hoje a noite não tem luar 

    	

enviado porenviado por: Tijolo Eletrico
cifra enviadaCorrigida por: sem correções
logo top cifrasComente
ico música do artistaMúsicas deste artista
ico curtiuCurtiu?
ico destaqueDestaque
Petaxxon Comunicação Online

Cifras.com.br - Melhor e mais completo site de cifras e tablaturas do Brasil Mais de 1 milhão de acordes de músicas cadastradas desde 2003
As informações contidas no nosso site são colaborações de seus usuários e podem conter erros, sendo assim, não nos responsabilizamos sobre nenhuma destas.

close
menos
mais
close
Cor dos acordes:

Cor da letra:

close
Alinhar acordes a direita Alinhar acordes a esquerda Alinhar acordes em baixo Alinhar acordes no topo
close
  Mostrar todos os acordes Esconder acordes muito fáceis Esconder acordes fáceis Esconder acordes intermediários
redimensionar
glossário