Cifras e Tablaturas
Legião Urbana

Legião Urbana

Leila

Ano: 1996
Album : A Tempestade

Cifras Cancelar Versão de Impressão Print

Legião Urbana - Leila

Tom: B

  			LEILA 
Tom: B 
 
INTRO: (B  A)x4 
   B        A          B      A      B      A      B     A 
e|-2------------0------2----------5--7----------5--2----------0-| 
B|---4--------2---2------4------5------7------5------4------2---| 
G|-----4-4--2-------2------4--6----------8--6----------4--2-----| 
D|--------------------------------------------------------------| 
A|--------------------------------------------------------------| 
E|--------------------------------------------------------------| 
 
          B 
 Estou pensando em você 
 B7+ 
 Quero lhe ver 
 E                           C#m 
 Mas nesse horário você deve estar 
   D#m                  C#m 
 Pegando os filhotes no colégio 
                  F# 
 Depois chegar em casa 
          B          B7+ 
 Ver o resto de tudo 
          E              C#m 
 E quando vem o silêncio 
         D#m              C#m 
 Fumar unzinho e ouvir Coltrane 
                                      F# 
 Não faço mais isso mas entendo muito bem 
 
SOLO: (B A)x4 
   B        A          B      A      B      A           B      A 
e|-2------------0------2----------5--7----------9-------7----------0-| 
B|---4--------2---2------4------5------7------10--10------7------2---| 
G|-----4-4--2-------2------4--6----------8--9--------9------8--2-----| 
D|-------------------------------------------------------------------| 
A|-------------------------------------------------------------------| 
E|-------------------------------------------------------------------| 
 
    B            B7+ 
 Adoro os teus cabelos 
    E            C#m 
 Adoro a tua voz 
    D#m        C#m 
 Adoro teu estilo 
                      F# 
 Adoro tua paz de espírito 
 
 E              D 
 O encanador te deixou na mão 
        E                  D 
 Tem reunião do condomínio 
         D/A    A 
 O telefone não dá linha 
        C/G               G 
 E o chuveiro tá dando choque 
                E                     D 
 Tem uma barata voadora no quarto das crianças 
          E                       D 
 E os monstrinhos estão gritando alucinados 
                  D/A      A 
 P'rá eles tudo é diversão 
                           C/G 
 Mas você sabe o que é ter pavor, pavor, pavor 
                 (B  A) 
 De baratas voadoras 
 
   (B A) 
 E você diz daquele seu jeito: 
 - Ai, preciso de um homem! - 
 E eu digo: - Ah, Leila! Eu também 
           (B  A) 
 E a gente ri 
 
SOLO: (B  B7+  E  C#m  D#m  C#m    F#) 
e|-------------------------------------------------------------------------| 
B|--------------------------7/9-7-7----------------------7-------9-9\7-7-7-| 
G|-4/6--4--3-6/8-6--6-4-------------6/8-6-4----------4-6----8/10-----------| 
D|-----------------------6------------------6-4--4-6-----------------------| 
A|-------------------------------------------------------------------------| 
E|-------------------------------------------------------------------------| 
 
         E                     D 
 Você monta suas fotos prá exposição 
      E                          D 
 Promete trabalhar mais com o computador 
        D/A            A 
 E terminar seu vídeo até setembro 
           C/G         G 
 Ter que pegar o carro no conserto 
          E                      D 
 Ver a conta do banco, cartão, IPTU 
     E          D 
 Sábado vai ter peixada na Analú 
        D/A A                      C/G 
 E domingo, cachorro-quente com as crianças na 
          G          
 Fernanda 
 
SOLO: (B A)x4 
   B      A          B        A      B      A     B      A 
e|-2----------0------2------------5--7---------9--7----------0-| 
B|----------2---2------4--------5------7-----10-----7------2---| 
G|-----4--2-------2------4-4--6----------8--9---------8--2-----| 
D|-------------------------------------------------------------| 
A|-------------------------------------------------------------| 
E|-------------------------------------------------------------| 
 
    B            B7+ 
 Adoro teu olhar 
    E      C#m 
 Adoro tua força 
      D#m                C#m   F# 
 E adoro dizer seu nome: Leila 
      B      B7+    E               C#m 
 Às vezes as coisas são difíceis, minha amiga 
          D#m        C#m                     F# B   B7+ 
 Mas você sabe enfrentar a beleza dessa vida     uhumm... 
  E              C#m 
 Adoro dizer seu nome: 
 D#m C#m     F#  B  B7+  E  C#m  D#m  C#m     F# 
 Leila    Leila                    Leila   Leila... 
 
FINAL: (B7+  E  C#m  D#m  C#m  C#m7  F#) 
e|-------------------------------------------------------------------- 
B|-12-12---------------------12-11-12-11-12-11-12-11------------------ 
G|-----------------------------------------------------------11------- 
D|---------------12-10---------------------------------10/12----12\10- 
A|---------11/12--------11-------------------------------------------- 
E|-------------------------------------------------------------------- 
 
-------------------------------11----------------------------------------------| 
---------------12--14-12----12---14-12----12--12--12------------------12-14-12-| 
-9-------11--11-----------11------------11--11-------------11-------11---------| 
---10/12---------------------------------------------10/12---12\10-------------| 
-------------------------------------------------------------------------------| 
-------------------------------------------------------------------------------| 
 
 
 
SOLOS DE FUNDO: 
 
O encanador te deixou... 
e|-------------------------------------------------------------------- 
B|-9--9--7-9--7-9-7-9-10-9-7--9--9--7-9--7-9-10-9-7-------------8-7h8-G|--------------------------------------------------6/9--6-7-9-------- 
D|-------------------------------------------------------------------- 
A|-------------------------------------------------------------------- 
E|-------------------------------------------------------------------- 
 
---------------------------------------------------------------------- 
-7h8--7-7\5/7-8--9--9--7-9--7-9-7-9-10-9-7--9--9--7-9/10\9-7---------- 
-------------------------------------------------------------7--9-9-9- 
---------------------------------------------------------------------- 
---------------------------------------------------------------------- 
---------------------------------------------------------------------- 
 
---------------------------------------------| 
--------------8-7h8-7h8-7h8h10p8p7h8p7-7-~~--| 
-6h9-6h9-6h9---------------------------------| 
---------------------------------------------| 
---------------------------------------------| 
---------------------------------------------| 
 
            E você diz daquele seu... 
e|-2------------5--7----------9--2------------0--2----------5-| 
B|---4--------5------7------10-----4--------2------4------5---| 
G|-----4-4--6----------8--9----------4-4--2----------4--6-----| 
D|------------------------------------------------------------| 
A|------------------------------------------------------------| 
E|------------------------------------------------------------| 
 
Você monta suas fotos... 
e|-------------------------------------------------------------------- 
B|-9--9--7-9--7-9-7-9-10-9-7--9--9--7-9/10\9-7------------------8-7h8-G|---------------------------------------------7--9-7/9--6-7-9-------- 
D|-------------------------------------------------------------------- 
A|-------------------------------------------------------------------- 
E|-------------------------------------------------------------------- 
 
---------------------------------------------------------------------- 
-7h8--7-7\5/7-8--9--9--7-9--7-9-7-9-10-9-7--9--9--7-9/10\9-7---------- 
-------------------------------------------------------------7--9-9-9- 
---------------------------------------------------------------------- 
---------------------------------------------------------------------- 
---------------------------------------------------------------------- 
 
--------------------------------------| 
-----------8-7h8-7h8-p7---------------| 
-7\6-7/9-----------------1--1-1/10--~-| 
--------------------------------------| 
--------------------------------------| 
--------------------------------------| 

    	

enviado porenviado por: Tijolo Eletrico
cifra enviadaCorrigida por: sem correções
logo top cifrasComente
ico música do artistaMúsicas deste artista
ico curtiuCurtiu?
ico destaqueDestaque
Petaxxon Comunicação Online

Cifras.com.br - Melhor e mais completo site de cifras e tablaturas do Brasil Mais de 1 milhão de acordes de músicas cadastradas desde 2003
As informações contidas no nosso site são colaborações de seus usuários e podem conter erros, sendo assim, não nos responsabilizamos sobre nenhuma destas.

close
menos
mais
close
Cor dos acordes:

Cor da letra:

close
Alinhar acordes a direita Alinhar acordes a esquerda Alinhar acordes em baixo Alinhar acordes no topo
close
  Mostrar todos os acordes Esconder acordes muito fáceis Esconder acordes fáceis Esconder acordes intermediários
redimensionar
glossário