Cifras e Tablaturas
Legião Urbana
Cifras Cancelar Versão de Impressão Print

Legião Urbana - Os Anjos

Tom: D

  			OS ANJOS 
Tom: G 

INTRO: (G) 4x 
e|-------| 
B|-----7-| 
G|-----7-| 
D|-5-5---| 
A|-------| 
E|-------| 

         D {RIFF 1} 
Hoje não dá 
         A {RIFF 1} 
Hoje não dá 
        G               {RIFF 1} 
Não sei mais o que dizer 
Em      A       D {RIFF 1} 
E nem o que pensar 
         D {RIFF 1} 
Hoje não dá 
         A {RIFF 1} 
Hoje não dá 
               G                A  {RIFF 1} 
A maldade humana agora não tem nome 
        D  {RIFF 1} 
Hoje não dá 
        G               A     {RIFF 2} 
Pegue duas medidas de estupidez 
        D       A/C#            Bm    A {RIFF 2} 
Junte trinta e quatro partes de mentira 
        G              {RIFF 2} 
Coloque tudo numa forma 
   A            {RIFF 2} 
Untada previamente 
        D     A/C#    Bm    A {RIFF 2} 
Com promessas não cumpridas 
G                   A              {RIFF 2} 
Adicione a seguir o ódio e a inveja 
        D       A/C#       Bm   A {RIFF 2} 
As dez colheres cheias de burrice 
     G              A     {RIFF 2} 
Mexa tudo e misture bem 
             D     A/C#       Bm     A   {RIFF 3} 
E não se esqueça: antes de levar ao forno 
     D       A/C#          Bm         A   {RIFF 3} 
Temperar com essência de espírito de porco, 
     D           A/C#  Bm   A {RIFF 3} 
Duas xícaras de indiferença 
         D      A/C#      Bm    A {RIFF 3} 
E um tablete e meio de preguiça 
         D {RIFF 1} 
Hoje não dá 
         A {RIFF 1} 
Hoje não dá 
        G                 Em  {RIFF 1} 
Está um dia tão bonito lá fora 
     A      D     {RIFF 1} 
E eu quero brincar 
             D {RIFF 1} 
Mas hoje não dá 
         A {RIFF 1} 
Hoje não dá 
        G                     Em  {RIFF 1} 
Vou consertar a minha asa quebrada 
  A      D {RIFF 1} 
E descansar 
     G       A     D  A/C#   Bm  A     G  {RIFF 2} 
Gostaria de não saber destes crimes atrozes 
        A       D A/C#    Bm  A    G {RIFF 2} 
É todo dia agora  e o que vamos fazer? 
        A           D   A/C#  Bm A      G {RIFF 2} 
Quero voar pra bem longe  mas hoje não dá 
          A       D    A/C#   Bm  A   G F#m Em A {RIFF 4} 
Não sei o que pensar e nem o que dizer 
D   A/C#   Bm   A  G {RIFF 4} 
Só nos sobrou do amor 
  F#m   Em  A  D {RIFF 4} 
A falta que ficou 

FINAL: 
   D 
e|-5-5--5--------------10-| 
B|-7-7--7--8-8-8-10-8--7--| 
G|-7-7--7--------------7--| 
D|-0-------------------0--| 
A|------------------------| 
E|------------------------| 


SOLOS DE FUNDO: 
RIFF 1: 
   D               A         G          Em A      D 
e|--------------------------------7--5---------5--5------5------5--| 
B|-7--5------------------5--------------8------------7-8---7--7---7| 
G|-------7--6--4---6--4--6---6/7-----------4/7---------------------| 
D|-----------------------------------------------------------------| 
A|-----------------------------------------------------------------| 
E|-----------------------------------------------------------------| 

RIFF 2: 
   G     A       D    A/C#   Bm    A 
e|----3-----555----------------------------| 
B|----3-----555----7-----5-------3---2-----| 
G|----4-----666------7-----6---4-------2---| 
D|-5--5--7--777--------------------------2-| 
A|-5--5--7--777--5-----4-----2-----0-------| 
E|-3--3--5--555----------------------------| 

RIFF 3: 
   D    A/C#   Bm    A 
e|---------------------------| 
B|---7-----5-------3---2-----| 
G|-----7-----6---4-------2---| 
D|-------------------------2-| 
A|-5-----4-----2-----0-------| 
E|---------------------------| 

RIFF 4: 
   G     A       D    A/C#   Bm    A       G  F#m Em    A 
e|---------------------------------------------| 
B|---7-----5-------3---2-------3---2----0---2--| 
G|-----7-----6---4-------2-------------0-----2-| 
D|-------------------------2-------------------| 
A|-5-----4-----2-----0--------------------0----| 
E|---------------------------3---2---0---------| 

    	

enviado porenviado por: Tijolo Eletrico
cifra enviadaCorrigida por: sem correções
logo top cifrasComente
ico música do artistaMúsicas deste artista
ico curtiuCurtiu?
ico destaqueDestaque
Petaxxon Comunicação Online

Cifras.com.br - Melhor e mais completo site de cifras e tablaturas do Brasil Mais de 1 milhão de acordes de músicas cadastradas desde 2003
As informações contidas no nosso site são colaborações de seus usuários e podem conter erros, sendo assim, não nos responsabilizamos sobre nenhuma destas.

close
menos
mais
close
Cor dos acordes:

Cor da letra:

close
Alinhar acordes a direita Alinhar acordes a esquerda Alinhar acordes em baixo Alinhar acordes no topo
close
  Mostrar todos os acordes Esconder acordes muito fáceis Esconder acordes fáceis Esconder acordes intermediários
redimensionar
glossário