Cifras e Tablaturas
Less Than Jake

Less Than Jake

Call To Arms

Cifras Cancelar Versão de Impressão
cifras

Less Than Jake - Call To Arms

fixar na tela  
Exibindo: vídeo-aula ver clipes redimensionar

Tom:

  
Intro 

e|---------------------|-----------------| 
B|---------------------|-----------------| 
G|----6---6------6---6-|----6---6--------| 
D|-/7---7-----/7---7---|-/7---7-----\\---| 
A|---------------------|------------\\---| 
E|---------------------|-----------------| 


verse 1 

e|-------------|-------------|-------------|---------------| 
B|-------------|-------------|-------------|---------------| 
G|-------------|-------------|-------------|-7--7-7--7-7-7-| 
D|-7--7--7-7-7-|-7--7--7-7-7-|-5--5--5-5-5-|-7--7-7--7-7-7-| (x4) 
A|-7--7--7-7-7-|-7--7--7-7-7-|-5--5--5-5-5-|-5--5-5--5-5-5-| 
E|-5--5--5-5-5-|-4--4--4-4-4-|-3--3--3-3-3-|---------------| 


Pre-Chorus 1 

e|----------------|-----------------|-----------------| 
B|----------------|-----------------|-----------------| 
G|--------------4-|-----------------|-----------------| 
D|-4-4-4-4-4-4--4-|-5-5-5-5-5-5-5-5-|-5-5-5-5-5-5-5-5-| 
A|-4-4-4-4-4-4--2-|-5-5-5-5-5-5-5-5-|-5-5-5-5-5-5-5-5-| 
E|-2-2-2-2-2-2----|-3-3-3-3-3-3-3-3-|-3-3-3-3-3-3-3-3-| 

                          PM 
Chorus 1 

e|--------------------------|-----------------------------| 
B|--------------------------|-----------------------------| 
G|--7--------9--9--7/11--11-|--7--------9-9-9-9-9-9-9-9-9-| 
D|--7--7--7--9--9--7/11--11-|--7--7--7--9-9-9-9-9-9-9-9-9-|  
A|--5--7--7--7--7--9/-9---9-|--5--7--7--7-7-7-7-7-7-7-7-7-| 
E|-----5--5-----------------|-----5--5--------------------| 

e|--------------------------|-------------------------------| 
B|--------------------------|-------------------------------| 
G|--7--------9--9--7/11--11-|-------------------7-7--7/9--9-| 
D|--7--7--7--9--9--7/11--11-|--5-5-5-5-5-5-5-5--7-7--7/9--9-| 
A|--5--7--7--7--7--9/-9---9-|--5-5-5-5-5-5-5-5--5-5--5/7--7-| 
E|-----5--5-----------------|--3-3-3-3-3-3-3-3--------------| 

e|-------------|-------------|-------------|---------------| 
B|-------------|-------------|-------------|---------------| 
G|-------------|-------------|-------------|-7--7-7--7-7-7-| 
D|-7--7--7-7-7-|-7--7--7-7-7-|-5--5--5-5-5-|-7--7-7--7-7-7-| 
A|-7--7--7-7-7-|-7--7--7-7-7-|-5--5--5-5-5-|-5--5-5--5-5-5-| 
E|-5--5--5-5-5-|-4--4--4-4-4-|-3--3--3-3-3-|---------------| 

e|-------------|-------------|-------------|--------| 
B|-------------|-------------|-------------|--------| 
G|-------------|-------------|-------------|--7--7--| 
D|-7--7--7-7-7-|-7--7--7-7-7-|-5--5--5-5-5-|--7--7--| 
A|-7--7--7-7-7-|-7--7--7-7-7-|-5--5--5-5-5-|--5--5--| 
E|-5--5--5-5-5-|-4--4--4-4-4-|-3--3--3-3-3-|--------| 


verse 2 

e|-------------|-------------|-------------|---------------| 
B|-------------|-------------|-------------|---------------| 
G|-------------|-------------|-------------|-7--7-7--7-7-7-| 
D|-7--7--7-7-7-|-7--7--7-7-7-|-5--5--5-5-5-|-7--7-7--7-7-7-| (x4) 
A|-7--7--7-7-7-|-7--7--7-7-7-|-5--5--5-5-5-|-5--5-5--5-5-5-| 
E|-5--5--5-5-5-|-4--4--4-4-4-|-3--3--3-3-3-|---------------| 


Pre-Chorus 2 

e|----------------|-----------------|-----------------| 
B|----------------|-----------------|-----------------| 
G|--------------4-|-----------------|-----------------| 
D|-4-4-4-4-4-4--4-|-5-5-5-5-5-5-5-5-|-5-5-5-5-5-5-5-5-| 
A|-4-4-4-4-4-4--2-|-5-5-5-5-5-5-5-5-|-5-5-5-5-5-5-5-5-| 
E|-2-2-2-2-2-2----|-3-3-3-3-3-3-3-3-|-3-3-3-3-3-3-3-3-| 
                          PM 

Chorus 2 

e|--------------------------|-----------------------------| 
B|--------------------------|-----------------------------| 
G|--7--------9--9--7/11--11-|--7--------9-9-9-9-9-9-9-9-9-| 
D|--7--7--7--9--9--7/11--11-|--7--7--7--9-9-9-9-9-9-9-9-9-|  
A|--5--7--7--7--7--9/-9---9-|--5--7--7--7-7-7-7-7-7-7-7-7-| 
E|-----5--5-----------------|-----5--5--------------------| 

e|--------------------------|------------------------------------| 
B|--------------------------|------------------------------------| 
G|--7--------9--9--7/11--11-|-------------------7-7-7-7--9-9-9-9-| 
D|--7--7--7--9--9--7/11--11-|--5-5-5-5-5-5-5-5--7-7-7-7--9-9-9-9-| 
A|--5--7--7--7--7--9/-9---9-|--5-5-5-5-5-5-5-5--5-5-5-5--7-7-7-7-| 
E|-----5--5-----------------|--3-3-3-3-3-3-3-3-------------------| 


Bridge 

e|-------------------------|-------------------------|-----------------|-----------------| 
B|-------------------------|-------------------------|-----------------|-----------------| 
G|-10-10-10-10-10-10-10-10-|-12-12-12-12-12-12-12-12-|-----------------|-----------------| 
D|-10-10-10-10-10-10-10-10-|-12-12-12-12-12-12-12-12-|-7-7-7-7-7-7-7-7-|-7-7-7-7-7-7-7-7-| (x2) 
A|--8--8--8--8--8--8--8--8-|-10-10-10-10-10-10-10-10-|-7-7-7-7-7-7-7-7-|-7-7-7-7-7-7-7-7-| 
E|-------------------------|-------------------------|-5-5-5-5-5-5-5-5-|-5-5-5-5-5-5-5-5-| 

e|-------------------------|--------------------------------------------| 
B|-------------------------|--------------------------------------------| 
G|-10-10-10-10-10-10-10-10-|-12-12---12-12-12---12-12-12-12-12-12-12-12-| 
D|-10-10-10-10-10-10-10-10-|-12-12---12-12-12---12-12-12-12-12-12-12-12-| 
A|--8--8--8--8--8--8--8--8-|-10-10---10-10-10---10-10-10-10-10-10-10-10-| 
E|-------------------------|--------------------------------------------| 


Chorus 3 

e|----------------------------|------------------------------------------| 
B|----------------------------|------------------------------------------| 
G|--8--------10--10-10/12--12-|--8--------10--10-10-10-10-10-10-10-10-10-| 
D|--8--8--8--10--10-10/12--12-|--8--8--8--10--10-10-10-10-10-10-10-10-10-| 
A|--6--8--8---8---8--8/10--10-|--6--8--8---8---8--8--8--8--8--8--8--8--8-| 
E|-----6--6-------------------|-----6--6---------------------------------| 

e|----------------------------|----------------------------------------| 
B|----------------------------|----------------------------------------| 
G|--8--------10--10-10/12--12-|-------------------8-8-8-8--10-10-10-10-| 
D|--8--8--8--10--10-10/12--12-|--6-6-6-6-6-6-6-6--8-8-8-8--10-10-10-10-| 
A|--6--8--8---8---8--8/10--10-|--6-6-6-6-6-6-6-6--6-6-6-6---8--8--8--8-| 
E|-----6--6-------------------|--4-4-4-4-4-4-4-4-----------------------| 


Outro 

e|----------------------------|----------------------------| 
B|----------------------------|----------------------------| 
G|--8--------10--10-10/12--12-|--8--------10--10-10/12--12-| 
D|--8--8--8--10--10-10/12--12-|--8--8--8--10--10-10/12--12-|  
A|--6--8--8---8---8--8/10--10-|--6--8--8---8---8--8/10--10-| 
E|-----6--6-------------------|-----6--6-------------------| 

e|----------------------------|--------------------------| 
B|----------------------------|--------------------------| 
G|--8--------10--10-10/12--12-|------9---11--------------| 
D|--8--8--8--10--10-10/12--12-|--7---9---11---8---7---6--| 
A|--6--8--8---8---8--8/10--10-|--7---8----9---8---7---6--| 
E|-----6--6-------------------|--5------------6---5---4--| 



************************************ 

| /   Slide up 
| \\  Pick Slide 
| PM  Palm mute 

************************************ 
  

top 5 | less than jake
top punk rock
Outras músicas do artista letras do(a) Less Than Jake
Top cifras »Top artistas »
Petaxxon Comunicação Online
Cifras.com.br - Melhor e mais completo site de cifras e tablaturas do Brasil
Mais de 1 milhão de acordes de músicas cadastradas desde 2003
As informações contidas no nosso site são colaborações de seus usuários e podem conter erros, sendo assim, não nos responsabilizamos sobre nenhuma destas.
close
menos
mais
close
Cor dos acordes:

Cor da letra:

 

save
close
close
 
redimensionar