Cifras e Tablaturas
Less Than Jake

Less Than Jake

Evil Has No Boundaries

Cifras Cancelar Versão de Impressão
cifras

Less Than Jake - Evil Has No Boundaries

fixar na tela  
Exibindo: vídeo-aula ver clipes redimensionar

Tom:

    
e:-----------------------------------------------------------| 
B:-----------------------------------------------------------| 
G:-----------------------------------------------------------| 
D:--7/9----------7/9-----------7/9-------------------6/7-----| 
A:--5/7----------5/7-----------5/7------------9--7---4/5-----| 
E:------0-0-0-0-------0-0-0-0--------0-0-0-0--7--5--------0--| 
                                              
e:--------------------------------------------------------| 
B:--------------------------------------------------------| 
G:--------------------------------------------------------| 
D:-7/9----------7/9------------7/9-------------------10---| 
A:-5/7----------5/7------------5/7-----------9---7---8----| 
E:-----0-0-0-0-------0-0-0-0-------0-0-0-0---7---5--------| 

e:-----------------------------------------------------------| 
B:-----------------------------------------------------------| 
G:-----------------------------------------------------------| 
D:--7/9----------7/9-----------7/9-------------------6/7-----| 
A:--5/7----------5/7-----------5/7------------9--7---4/5-----| 
E:------0-0-0-0-------0-0-0-0--------0-0-0-0--7--5--------0--| 
                                              
e:--------------------------------------------------------| 
B:--------------------------------------------------------| 
G:--------------------------------------------------------| 
D:-7/9----------7/9------------7/9-------------------10---| 
A:-5/7----------5/7------------5/7-----------9---7---8----| 
E:-----0-0-0-0-------0-0-0-0-------0-0-0-0---7---5--------| 

verse 
e:-----------------------------------------------------------| 
B:-----------------------------------------------------------| 
G:-----------------------------------------------------------| 
D:--7/9----------7/9-----------7/9-------------------6/7-----| 
A:--5/7----------5/7-----------5/7------------9--7---4/5-----| 
E:------0-0-0-0-------0-0-0-0--------0-0-0-0--7--5--------0--| 
                                              
e:--------------------------------------------------------| 
B:--------------------------------------------------------| 
G:--------------------------------------------------------| 
D:-7/9----------7/9------------7/9-------------------10---| 
A:-5/7----------5/7------------5/7-----------9---7---8----| 
E:-----0-0-0-0-------0-0-0-0-------0-0-0-0---7---5--------| 

  Chorus 
e:------------------------------------------| 
B:------------------------------------------| 
G:------------------------------------------| 
D:--4------------------4---------7----6-----| 
A:--2---2----5----4----2----2----5----4-----| 
E:------0----3----2---------0---------------| 

e:------------------------------------------| 
B:------------------------------------------| 
G:------------------------------------------| 
D:--4----------------4---------7----9-------| 
A:--2---2---5---4----2----2----5----7-------| 
E:------0---3---2---------0-----------------| 

verse 
e:-----------------------------------------------------------| 
B:-----------------------------------------------------------| 
G:-----------------------------------------------------------| 
D:--7/9----------7/9-----------7/9-------------------6/7-----| 
A:--5/7----------5/7-----------5/7------------9--7---4/5-----| 
E:------0-0-0-0-------0-0-0-0--------0-0-0-0--7--5--------0--| 
                                              
e:--------------------------------------------------------| 
B:--------------------------------------------------------| 
G:--------------------------------------------------------| 
D:-7/9----------7/9------------7/9-------------------10---| 
A:-5/7----------5/7------------5/7-----------9---7---8----| 
E:-----0-0-0-0-------0-0-0-0-------0-0-0-0---7---5--------| 


e:-------------------------------------------------| 
B:-------------------------------------------------| 
G:-------------------------------------------------| 
D:----------------------------------------9-7-9-10-| 
A:----------------------------------------7-5-7-8--| 
E:--7-7-7-7--7-7-7-7--7-7-7-7--7-7-7-7-------------| 

                                            
e:----------------------------------------------------| 
B:----------------------------------------------------| 
G:----------------------------------------------------| 
D:---------------------------------------9-7--12------| 
A:---------------------------------------7-5--10------| 
E:-7-7-7-7--7-7-7-7--7-7-7-7--7-7-7-7-----------------| 

e:-------------------------------------------------| 
B:-------------------------------------------------| 
G:-------------------------------------------------| 
D:----------------------------------------9-7-9-10-| 
A:----------------------------------------7-5-7-8--| 
E:--7-7-7-7--7-7-7-7--7-7-7-7--7-7-7-7-------------| 

                                            
e:----------------------------------------------------| 
B:----------------------------------------------------| 
G:----------------------------------------------------| 
D:---------------------------------------9-7--12------| 
A:---------------------------------------7-5--10------| 
E:-7-7-7-7--7-7-7-7--7-7-7-7--7-7-7-7-----------------| 

  Chorus 
e:------------------------------------------| 
B:------------------------------------------| 
G:------------------------------------------| 
D:--4------------------4---------7----6-----| 
A:--2---2----5----4----2----2----5----4-----| 
E:------0----3----2---------0---------------| 

e:------------------------------------------| 
B:------------------------------------------| 
G:------------------------------------------| 
D:--4----------------4---------7----9-------| 
A:--2---2---5---4----2----2----5----7-------| 
E:------0---3---2---------0-----------------| 




Gt1       ---------------------------------- 
e:-------/-------------------------------------------------------| 
B:------/--------------------------------------------------------| 
G:-10Bf/--(10)-/-(11)-/-(12)-/-(13)-/-(14)--(14)~~~~~~~~~--14\---| 
D:---------------------------------------------------------------| 
A:---------------------------------------------------------------| 
E:---------------------------------------------------------------| 

Gt1 
e:------------------------------------------| 
B:------------------------------------------| 
G:------------------------------10Bf--------| 
D:------------------------------------------| 
A:------------------------------------------| 
E:------------------------------------------| 

Gt2 
e:----------------------------------------------------------| 
B:----------------------------------------------------------| 
G:----------------------------------------------------------| 
D:-9---9-9-9-9---5---5-5-5-5---7---7-7-7-7---5--4-5--4-5-7--| 
A:-7---7-7-7-7---3---3-3-3-3---5---5-5-5-5---3--2-3--2-3-5--| 
E:----------------------------------------------------------| 



e:--------------------------------------------------------------------------| 
B:--------------------------------------------------------------------------| 
G:--------------------------------------------------------------------------| 
D:-9-----------------5------------------7--------------------5--4-5--4-5-7--| 
A:-7-----------------3------------------5--------------------3--2-3--2-3-5--| 
E:---0-0-0-0-0-0-0-0---0-0-0-0-0-0-0-0-----0-0-0-0-0-0-0-0------------------| 

e:--------------------------------------------------------------------------| 
B:--------------------------------------------------------------------------| 
G:--------------------------------------------------------------------------| 
D:-9-----------------5------------------7--------------------5--4-5--4-5-7--| 
A:-7-----------------3------------------5--------------------3--2-3--2-3-5--| 
E:---0-0-0-0-0-0-0-0---0-0-0-0-0-0-0-0-----0-0-0-0-0-0-0-0------------------| 

e:----------------------------------------------------------| 
B:----------------------------------------------------------| 
G:----------------------------------------------------------| 
D:-9---9-9-9-9---5---5-5-5-5---7---7-7-7-7---5--4-5--4-5-7--| 
A:-7---7-7-7-7---3---3-3-3-3---5---5-5-5-5---3--2-3--2-3-5--| 
E:----------------------------------------------------------| 

e:----------------------------------------------------------| 
B:----------------------------------------------------------| 
G:----------------------------------------------------------| 
D:-9---9-9-9-9---5---5-5-5-5---7---7-7-7-7---5--4-5--4-5-7--| 
A:-7---7-7-7-7---3---3-3-3-3---5---5-5-5-5---3--2-3--2-3-5--| 
E:----------------------------------------------------------| 



e:--------------------|----------------------|-----------------------| 
B:--------------------|----------------------|-----------------------| 
G:--------------------|----------------------|-----------------------| 
D:--5-----------------|-8--------------------|-----------------------| 
A:--3-----------------|-6--------------------|-5---------------------| 
E:--------------------|----------------------|-3---------------------| 


e:--------------------|-----------------------|-----------------------| 
B:--------------------|-----------------------|-----------------------| 
G:--------------------|-----------------------|-----------------------| 
D:--------------------|-5---------------------|-8---------------------| 
A:--8------7----------|-3---------------------|-6---------------------| 
E:--6------5----------|-----------------------|-----------------------| 


e:-----------------------|----------------------------| 
B:-----------------------|----------------------------| 
G:-----------------------|----------------------------| 
D:-----------------------|----------------------7-----| 
A:-3---------------------|-7-----5------4-------5-----| 
E:-1---------------------|-5-----3------2-------------| 


e:--------------------------------------------|-------------| 
B:--------------------------------------------|-------------| 
G:----------------------------------------9---|-9--9---9-9--| 
D:-9---99999999999999999---9--------------9---|-9--9---9-9--| 
A:-7---77777777777777777---7--------------7---|-7--7---7-7--| 
E:-------------------------0--------------0---|-0--0---0-0--| 



hillo son mex 

22/04/03 
  

top 5 | less than jake
top punk rock
Outras músicas do artista letras do(a) Less Than Jake
Top cifras »Top artistas »
Petaxxon Comunicação Online
Cifras.com.br - Melhor e mais completo site de cifras e tablaturas do Brasil
Mais de 1 milhão de acordes de músicas cadastradas desde 2003
As informações contidas no nosso site são colaborações de seus usuários e podem conter erros, sendo assim, não nos responsabilizamos sobre nenhuma destas.
close
menos
mais
close
Cor dos acordes:

Cor da letra:

 

save
close
close
 
redimensionar