Cifras e Tablaturas
Less Than Jake

Less Than Jake

Good Sign

Cifras Cancelar Versão de Impressão
cifras

Less Than Jake - Good Sign

fixar na tela  
Exibindo: vídeo-aula ver clipes redimensionar

Tom:

  
Intro 

eb|--------------------------|-----------------|-----------------| 
Bb|--------------------------|-----------------|-----------------| 
Gb|-7------------------------|-----------------|-----------------| 
Db|-7--7--5--5-5-5-5-5-5-5-5-|-5-5-5-5-5-5-5-5-|-5-5-5-5-5-5-5-5-| 
Ab|-5--7--5--5-5-5-5-5-5-5-5-|-5-5-5-5-5-5-5-5-|-5-5-5-5-5-5-5-5-| 
Eb|----5--3--3-3-3-3-3-3-3-3-|-3-3-3-3-3-3-3-3-|-3-3-3-3-3-3-3-3-| 

eb|--------------------------|-----------------|-----------------| 
Bb|--------------------------|-----------------|-----------------| 
Gb|-7-----7--7-7-7-7-7-7-7-7-|-7-7-7-7-7-7-7-7-|-7-7-7-7-7-7-7-7-| 
Db|-7--7--7--7-7-7-7-7-7-7-7-|-7-7-7-7-7-7-7-7-|-7-7-7-7-7-7-7-7-| 
Ab|-5--7--5--5-5-5-5-5-5-5-5-|-5-5-5-5-5-5-5-5-|-5-5-5-5-5-5-5-5-| 
Eb|----5---------------------|-----------------|-----------------| 

eb|--------------------------|-----------------|-----------------| 
Bb|--------------------------|-----------------|-----------------| 
Gb|-7------------------------|-----------------|-----------------| 
Db|-7--7--5--5-5-5-5-5-5-5-5-|-5-5-5-5-5-5-5-5-|-5-5-5-5-5-5-5-5-| 
Ab|-5--7--5--5-5-5-5-5-5-5-5-|-5-5-5-5-5-5-5-5-|-5-5-5-5-5-5-5-5-| 
Eb|----5--3--3-3-3-3-3-3-3-3-|-3-3-3-3-3-3-3-3-|-3-3-3-3-3-3-3-3-| 

eb|---------------------------|-----------------|-----------------| 
Bb|---------------------------|-----------------|-----------------| 
Gb|-7---7---------------------|-----------------|-----------------| 
Db|-7-x-7--7--7-7-7-7-7-7-7-7-|-5-5-5-5-5-5-5-5-|-5-5-5-5-5-5-5-5-| 
Ab|-5-x-5--7--7-7-7-7-7-7-7-7-|-5-5-5-5-5-5-5-5-|-5-5-5-5-5-5-5-5-| 
Eb|---x----5--5-5-5-5-5-5-5-5-|-3-3-3-3-3-3-3-3-|-3-3-3-3-3-3-3-3-| 


verse 1 

eb|----------------|----------------|----------------|----------------| 
Bb|----------------|----------------|----------------|----------------| 
Gb|-7--7-7-7-7-7-7-|-7--7-7-7-7-7-7-|----------------|----------------| 
Db|-7--7-7-7-7-7-7-|-7--7-7-7-7-7-7-|-5--5-5-5-5-5-5-|-9--9-9-9-9-9-9-| 
Ab|-5--5-5-5-5-5-5-|-5--5-5-5-5-5-5-|-5--5-5-5-5-5-5-|-9--9-9-9-9-9-9-| 
Eb|----------------|----------------|-3--3-3-3-3-3-3-|-7--7-7-7-7-7-7-| 

eb|----------------|----------------|-0--0-0-0-0-0-0-|-0--0-0-0-0-0-0-| 
Bb|----------------|----------------|-1--1-1-1-1-1-1-|-1--1-1-1-1-1-1-| 
Gb|-7--7-7-7-7-7-7-|-7--7-7-7-7-7-7-|-0--0-0-0-0-0-0-|-0--0-0-0-0-0-0-| 
Db|-7--7-7-7-7-7-7-|-7--7-7-7-7-7-7-|-2--2-2-2-2-2-2-|-0--0-0-0-0-0-0-| 
Ab|-5--5-5-5-5-5-5-|-5--5-5-5-5-5-5-|-3--3-3-3-3-3-3-|-2--2-2-2-2-2-2-| 
Eb|----------------|----------------|----------------|-3--3-3-3-3-3-3-| 

eb|----------------|----------------|----------------|----------------| 
Bb|----------------|----------------|----------------|----------------| 
Gb|-7--7-7-7-7-7-7-|-7--7-7-7-7-7-7-|----------------|----------------| 
Db|-7--7-7-7-7-7-7-|-7--7-7-7-7-7-7-|-5--5-5-5-5-5-5-|-9--9-9-9-9-9-9-| 
Ab|-5--5-5-5-5-5-5-|-5--5-5-5-5-5-5-|-5--5-5-5-5-5-5-|-9--9-9-9-9-9-9-| 
Eb|----------------|----------------|-3--3-3-3-3-3-3-|-7--7-7-7-7-7-7-| 

eb|----------------|----------------|-0--0-0-0-0-0-0-|-0--0-0-0-0-0-0-| 
Bb|----------------|----------------|-1--1-1-1-1-1-1-|-1--1-1-1-1-1-1-| 
Gb|-7--7-7-7-7-7-7-|-7--7-7-7-7-7-7-|-0--0-0-0-0-0-0-|-0--0-0-0-0-0-0-| 
Db|-7--7-7-7-7-7-7-|-7--7-7-7-7-7-7-|-2--2-2-2-2-2-2-|-0--0-0-0-0-0-0-| 
Ab|-5--5-5-5-5-5-5-|-5--5-5-5-5-5-5-|-3--3-3-3-3-3-3-|-2--2-2-2-2-2-2-| 
Eb|----------------|----------------|----------------|-3--3-3-3-3-3-3-| 


Pre-Chorus 1 

eb|----------------|----------------|----------------|----------------| 
Bb|----------------|----------------|----------------|----------------| 
Gb|----------------|----------------|-7--7-7-7-7-7-7-|-7--7-7-7-7-7-7-| 
Db|-4--4-4-4-4-4-4-|-5--5-5-5-5-5-5-|-7--7-7-7-7-7-7-|-7--7-7-7-7-7-7-| 
Ab|-4--4-4-4-4-4-4-|-5--5-5-5-5-5-5-|-5--5-5-5-5-5-5-|-5--5-5-5-5-5-5-| 
Eb|-2--2-2-2-2-2-2-|-3--3-3-3-3-3-3-|----------------|----------------| 

eb|----------------|----------------|----------------|----------------| 
Bb|----------------|----------------|----------------|----------------| 
Gb|----------------|----------------|----------------|----------------| 
Db|-4--4-4-4-4-4-4-|-5--5-5-5-5-5-5-|-7--7-7-7-7-7-7-|-7--7-7-7-7-7-7-| 
Ab|-4--4-4-4-4-4-4-|-5--5-5-5-5-5-5-|-7--7-7-7-7-7-7-|-7--7-7-7-7-7-7-| 
Eb|-2--2-2-2-2-2-2-|-3--3-3-3-3-3-3-|-5--5-5-5-5-5-5-|-5--5-5-5-5-5-5-| 

eb|----------------|----------------| 
Bb|----------------|----------------| 
Gb|----------------|----------------| 
Db|-7--7-7-7-7-7-7-|-7--7-7-7-7-7-7-| 
Ab|-7--7-7-7-7-7-7-|-7--7-7-7-7-7-7-| 
Eb|-5--5-5-5-5-5-5-|-5--5-5-5-5-5-5-| 


Chorus 1 

eb|-----------------|-----------------|-------------------------------------------| 
Bb|-----------------|-----------------|-------------------------------------------| 
Gb|-5-5-5-5-5-5-5-5-|-----------------|-7-7-7/9-9-9--11-11-11--12-12-12--11/12-11-| 
Db|-5-5-5-5-5-5-5-5-|-5-5-5-5-5-5-5-5-|-x-x-x-x-x-x---x--x--x---x--x--x---x--x--x-| (x3) 
Ab|-3-3-3-3-3-3-3-3-|-5-5-5-5-5-5-5-5-|-5-5-5/7-7-7---9--9--9--10-10-10---9/10--9-| 
Eb|-----------------|-3-3-3-3-3-3-3-3-|-------------------------------------------| 

eb|---------| 
Bb|---------| 
Gb|--5------| 
Db|--5---5--| 
Ab|--3---5--| 
Eb|------3--| 


Instrumental 

eb|--------------------------|-----------------|-----------------| 
Bb|--------------------------|-----------------|-----------------| 
Gb|-7------------------------|-----------------|-----------------| 
Db|-7--7--5--5-5-5-5-5-5-5-5-|-5-5-5-5-5-5-5-5-|-5-5-5-5-5-5-5-5-| 
Ab|-5--7--5--5-5-5-5-5-5-5-5-|-5-5-5-5-5-5-5-5-|-5-5-5-5-5-5-5-5-| 
Eb|----5--3--3-3-3-3-3-3-3-3-|-3-3-3-3-3-3-3-3-|-3-3-3-3-3-3-3-3-| 

eb|--------------------------|-----------------|-----------------| 
Bb|--------------------------|-----------------|-----------------| 
Gb|-7-----7--7-7-7-7-7-7-7-7-|-7-7-7-7-7-7-7-7-|-7-7-7-7-7-7-7-7-| 
Db|-7--7--7--7-7-7-7-7-7-7-7-|-7-7-7-7-7-7-7-7-|-7-7-7-7-7-7-7-7-| 
Ab|-5--7--5--5-5-5-5-5-5-5-5-|-5-5-5-5-5-5-5-5-|-5-5-5-5-5-5-5-5-| 
Eb|----5---------------------|-----------------|-----------------| 

eb|--------------------------|-----------------|-----------------| 
Bb|--------------------------|-----------------|-----------------| 
Gb|-7------------------------|-----------------|-----------------| 
Db|-7--7--5--5-5-5-5-5-5-5-5-|-5-5-5-5-5-5-5-5-|-5-5-5-5-5-5-5-5-| 
Ab|-5--7--5--5-5-5-5-5-5-5-5-|-5-5-5-5-5-5-5-5-|-5-5-5-5-5-5-5-5-| 
Eb|----5--3--3-3-3-3-3-3-3-3-|-3-3-3-3-3-3-3-3-|-3-3-3-3-3-3-3-3-| 

eb|---------------------------|-----------------|-----------------| 
Bb|---------------------------|-----------------|-----------------| 
Gb|-7---7---------------------|-----------------|-----------------| 
Db|-7-x-7--7--7-7-7-7-7-7-7-7-|-5-5-5-5-5-5-5-5-|-5-5-5-5-5-5-5-5-| 
Ab|-5-x-5--7--7-7-7-7-7-7-7-7-|-5-5-5-5-5-5-5-5-|-5-5-5-5-5-5-5-5-| 
Eb|---x----5--5-5-5-5-5-5-5-5-|-3-3-3-3-3-3-3-3-|-3-3-3-3-3-3-3-3-| 


verse 2 

eb|----------------|----------------|----------------|----------------| 
Bb|----------------|----------------|----------------|----------------| 
Gb|-7--7-7-7-7-7-7-|-7--7-7-7-7-7-7-|----------------|----------------| 
Db|-7--7-7-7-7-7-7-|-7--7-7-7-7-7-7-|-5--5-5-5-5-5-5-|-9--9-9-9-9-9-9-| 
Ab|-5--5-5-5-5-5-5-|-5--5-5-5-5-5-5-|-5--5-5-5-5-5-5-|-9--9-9-9-9-9-9-| 
Eb|----------------|----------------|-3--3-3-3-3-3-3-|-7--7-7-7-7-7-7-| 

eb|----------------|----------------|-0--0-0-0-0-0-0-|-0--0-0-0-0-0-0-| 
Bb|----------------|----------------|-1--1-1-1-1-1-1-|-1--1-1-1-1-1-1-| 
Gb|-7--7-7-7-7-7-7-|-7--7-7-7-7-7-7-|-0--0-0-0-0-0-0-|-0--0-0-0-0-0-0-| 
Db|-7--7-7-7-7-7-7-|-7--7-7-7-7-7-7-|-2--2-2-2-2-2-2-|-0--0-0-0-0-0-0-| 
Ab|-5--5-5-5-5-5-5-|-5--5-5-5-5-5-5-|-3--3-3-3-3-3-3-|-2--2-2-2-2-2-2-| 
Eb|----------------|----------------|----------------|-3--3-3-3-3-3-3-| 

eb|----------------|----------------|----------------|----------------| 
Bb|----------------|----------------|----------------|----------------| 
Gb|-7--7-7-7-7-7-7-|-7--7-7-7-7-7-7-|----------------|----------------| 
Db|-7--7-7-7-7-7-7-|-7--7-7-7-7-7-7-|-5--5-5-5-5-5-5-|-9--9-9-9-9-9-9-| 
Ab|-5--5-5-5-5-5-5-|-5--5-5-5-5-5-5-|-5--5-5-5-5-5-5-|-9--9-9-9-9-9-9-| 
Eb|----------------|----------------|-3--3-3-3-3-3-3-|-7--7-7-7-7-7-7-| 

eb|----------------|----------------|-0--0-0-0-0-0-0-|-0--0-0-0-0-0-0-| 
Bb|----------------|----------------|-1--1-1-1-1-1-1-|-1--1-1-1-1-1-1-| 
Gb|-7--7-7-7-7-7-7-|-7--7-7-7-7-7-7-|-0--0-0-0-0-0-0-|-0--0-0-0-0-0-0-| 
Db|-7--7-7-7-7-7-7-|-7--7-7-7-7-7-7-|-2--2-2-2-2-2-2-|-0--0-0-0-0-0-0-| 
Ab|-5--5-5-5-5-5-5-|-5--5-5-5-5-5-5-|-3--3-3-3-3-3-3-|-2--2-2-2-2-2-2-| 
Eb|----------------|----------------|----------------|-3--3-3-3-3-3-3-| 


Pre-Chorus 2 

eb|----------------|----------------|----------------|----------------| 
Bb|----------------|----------------|----------------|----------------| 
Gb|----------------|----------------|-7--7-7-7-7-7-7-|-7--7-7-7-7-7-7-| 
Db|-4--4-4-4-4-4-4-|-5--5-5-5-5-5-5-|-7--7-7-7-7-7-7-|-7--7-7-7-7-7-7-| 
Ab|-4--4-4-4-4-4-4-|-5--5-5-5-5-5-5-|-5--5-5-5-5-5-5-|-5--5-5-5-5-5-5-| 
Eb|-2--2-2-2-2-2-2-|-3--3-3-3-3-3-3-|----------------|----------------| 

eb|----------------|----------------|----------------|----------------| 
Bb|----------------|----------------|----------------|----------------| 
Gb|----------------|----------------|----------------|----------------| 
Db|-4--4-4-4-4-4-4-|-5--5-5-5-5-5-5-|-7--7-7-7-7-7-7-|-7--7-7-7-7-7-7-| 
Ab|-4--4-4-4-4-4-4-|-5--5-5-5-5-5-5-|-7--7-7-7-7-7-7-|-7--7-7-7-7-7-7-| 
Eb|-2--2-2-2-2-2-2-|-3--3-3-3-3-3-3-|-5--5-5-5-5-5-5-|-5--5-5-5-5-5-5-| 

eb|----------------|----------------| 
Bb|----------------|----------------| 
Gb|----------------|----------------| 
Db|-7--7-7-7-7-7-7-|-7--7-7-7-7-7-7-| 
Ab|-7--7-7-7-7-7-7-|-7--7-7-7-7-7-7-| 
Eb|-5--5-5-5-5-5-5-|-5--5-5-5-5-5-5-| 


Chorus 2 

eb|-----------------|-----------------|-------------------------------------------| 
Bb|-----------------|-----------------|-------------------------------------------| 
Gb|-5-5-5-5-5-5-5-5-|-----------------|-7-7-7/9-9-9--11-11-11--12-12-12--11/12-11-| 
Db|-5-5-5-5-5-5-5-5-|-5-5-5-5-5-5-5-5-|-x-x-x-x-x-x---x--x--x---x--x--x---x--x--x-| (x3) 
Ab|-3-3-3-3-3-3-3-3-|-5-5-5-5-5-5-5-5-|-5-5-5/7-7-7---9--9--9--10-10-10---9/10--9-| 
Eb|-----------------|-3-3-3-3-3-3-3-3-|-------------------------------------------| 

eb|---------| 
Bb|---------| 
Gb|--5------| 
Db|--5---5--| 
Ab|--3---5--| 
Eb|------3--| 


Bridge 

eb|------------------------------------|------------------------------------| 
Bb|------------------------------------|------------------------------------| 
Gb|------------------------------------|------------------------------------| 
Db|--7-7----7-7-7----7-7-7----7-7/9--9-|--5-5-x--5-5-5-x--5-5-5--x-5-5/9--9-| (x2) 
Ab|--7-7-x--7-7-7-x--7-7-7--x-7-7/9--9-|--5-5-x--5-5-5-x--5-5-5--x-5-5/9--9-| 
Eb|--5-5-x--5-5-5-x--5-5-5--x-5-5/7--7-|--3-3-x--3-3-3-x--3-3-3--x-3-3/7--7-| 

eb|------------------------------------|------------------------------------| 
Bb|------------------------------------|------------------------------------| 
Gb|------------------------------------|------------------------------------| 
Db|--7-7----7-7-7----7-7-7----7-7/9--9-|--5-5-x--5-5-5-x--5-5-5--x-5-5/9--9-| 
Ab|--7-7-x--7-7-7-x--7-7-7--x-7-7/9--9-|--5-5-x--5-5-5-x--5-5-5--x-5-5/9--9-| 
Eb|--5-5-x--5-5-5-x--5-5-5--x-5-5/7--7-|--3-3-x--3-3-3-x--3-3-3--x-3-3/7--7-| 

eb|------------------------------------|-----------------|-----------------| 
Bb|------------------------------------|-----------------|-----------------| 
Gb|------------------------------------|-----------------|-----------------| 
Db|--7-7----7-7-7----7-7-7----7-7/9--9-|-5-5-5-5-5-5-5-5-|-5-5-5-5-5-5-5-5-| 
Ab|--7-7-x--7-7-7-x--7-7-7--x-7-7/9--9-|-5-5-5-5-5-5-5-5-|-5-5-5-5-5-5-5-5-| 
Eb|--5-5-x--5-5-5-x--5-5-5--x-5-5/7--7-|-3-3-3-3-3-3-3-3-|-3-3-3-3-3-3-3-3-| 
                                               PM 

Chorus 3 

eb|-----0---------0--|--------2---------2---------| 
Bb|-----1---------1--|--------3---------3---------| 
Gb|-----0---------0--|--------2---------2---------| 
Db|-----2---------0--|-----0--0------0--0---------| 
Ab|--3--3--3-2----2--|-0-2-------0-2-------0-2-0--| 
Eb|------------3--3--|----------------------------| 

eb|-----0---------0--|--------2----2-2--2--x-x-----+7--| 
Bb|-----1---------1--|--------3----3-3--3--x-x--+7-----| 
Gb|-----0---------0--|--------2----2-2--2--x-x---------| 
Db|-----2---------0--|-----0--0----0-0--0--x-x---------| 
Ab|--3--3--3-2----2--|-0-2-----------------x-x---------| 
Eb|------------3--3--|---------------------x-x---------| 




Outro 

eb|-----------------|-----------------|-------------------------------------------| 
Bb|-----------------|-----------------|-------------------------------------------| 
Gb|-5-5-5-5-5-5-5-5-|-----------------|-7-7-7/9-9-9--11-11-11--12-12-12--11/12-11-| 
Db|-5-5-5-5-5-5-5-5-|-5-5-5-5-5-5-5-5-|-x-x-x-x-x-x---x--x--x---x--x--x---x--x--x-| (x3) 
Ab|-3-3-3-3-3-3-3-3-|-5-5-5-5-5-5-5-5-|-5-5-5/7-7-7---9--9--9--10-10-10---9/10--9-| 
Eb|-----------------|-3-3-3-3-3-3-3-3-|-------------------------------------------| 

eb|----------------------| 
Bb|----------------------| 
Gb|--5-5-5-5-5-5-5-5-----| 
Db|--5-5-5-5-5-5-5-5--5--| 
Ab|--3-3-3-3-3-3-3-3--5--| 
Eb|-------------------3--| 


************************************ 

| x   Dead note 
| +   Harmonic 
| /   Slide up 
| PM  Palm mute 


************************************ 
  

top 5 | less than jake
top punk rock
Outras músicas do artista letras do(a) Less Than Jake
Top cifras »Top artistas »
Petaxxon Comunicação Online
Cifras.com.br - Melhor e mais completo site de cifras e tablaturas do Brasil
Mais de 1 milhão de acordes de músicas cadastradas desde 2003
As informações contidas no nosso site são colaborações de seus usuários e podem conter erros, sendo assim, não nos responsabilizamos sobre nenhuma destas.
close
menos
mais
close
Cor dos acordes:

Cor da letra:

 

save
close
close
 
redimensionar