Cifras e Tablaturas
Less Than Jake

Less Than Jake

Things Change

Cifras Cancelar Versão de Impressão
cifras

Less Than Jake - Things Change

fixar na tela  
Exibindo: vídeo-aula ver clipes redimensionar

Tom:

  
Intro 

e|--------------------|--------------------| 
B|--------------------|--------------------| 
G|--9-9-------5---7---|--9-9-------5---7---| 
D|--9-9--5-5--5---7---|--9-9--5-5--5---7---| 
A|--7-7--5-5--3---5---|--7-7--5-5--3---5---| 
E|-------3-3----------|-------3-3----------| 

e|--------------------------------------|--------------------------------------| 
B|--------------------------------------|--------------------------------------| 
G|--9-9-9-9-----------5-5-5-5--7-7-7-7--|--9-9-9-9-----------5-5-5-5--7-7-7-7--| 
D|--9-9-9-9--5-5-5-5--5-5-5-5--7-7-7-7--|--9-9-9-9--5-5-5-5--5-5-5-5--7-7-7-7--| 
A|--7-7-7-7--5-5-5-5--3-3-3-3--5-5-5-5--|--7-7-7-7--5-5-5-5--3-3-3-3--5-5-5-5--| 
E|-----------3-3-3-3--------------------|-----------3-3-3-3--------------------| 


verse 1 

e|-------------|-x-----------|-x-------------|-x-------------| 
B|-8--8--8-8-8-|-x-----------|-x-5--5--5-5-5-|-x-7--7--7-7-7-| 
G|-9--9--9-9-9-|-x-4--4--4-4-|-x-5--5--5-5-5-|-x-7--7--7-7-7-| 
D|-9--9--9-9-9-|-x-5--5--5-5-|-x-5--5--5-5-5-|-x-7--7--7-7-7-| 
A|-7--7--7-7-7-|-x-5--5--5-5-|-x-3--3--3-3-3-|-x-5--5--5-5-5-| 
E|-------------|-x-3--3--3-3-|-x-------------|-x-------------| 

e|-------------|-x-----------|-x-------------|----------| 
B|-8--8--8-8-8-|-x-----------|-x-5--5--5-5-5-|---5------| 
G|-9--9--9-9-9-|-x-4--4--4-4-|-x-5--5--5-5-5-|-----5----| 
D|-9--9--9-9-9-|-x-5--5--5-5-|-x-5--5--5-5-5-|-------7--| 
A|-7--7--7-7-7-|-x-5--5--5-5-|-x-3--3--3-3-3-|----------| 
E|-------------|-x-3--3--3-3-|-x-------------|-5--------| 

e|-------------|-x-----------|-x-------------|-x-------------| 
B|-8--8--8-8-8-|-x-----------|-x-5--5--5-5-5-|-x-7--7--7-7-7-| 
G|-9--9--9-9-9-|-x-4--4--4-4-|-x-5--5--5-5-5-|-x-7--7--7-7-7-| 
D|-9--9--9-9-9-|-x-5--5--5-5-|-x-5--5--5-5-5-|-x-7--7--7-7-7-| 
A|-7--7--7-7-7-|-x-5--5--5-5-|-x-3--3--3-3-3-|-x-5--5--5-5-5-| 
E|-------------|-x-3--3--3-3-|-x-------------|-x-------------| 

e|-------------|-x-----------|-x-------------|----------| 
B|-8--8--8-8-8-|-x-----------|-x-5--5--5-5-5-|---5------| 
G|-9--9--9-9-9-|-x-4--4--4-4-|-x-5--5--5-5-5-|-----5----| 
D|-9--9--9-9-9-|-x-5--5--5-5-|-x-5--5--5-5-5-|-------7--| 
A|-7--7--7-7-7-|-x-5--5--5-5-|-x-3--3--3-3-3-|----------| 
E|-------------|-x-3--3--3-3-|-x-------------|-5--------| 


Pre-Chorus 1 

e|-------------------------|---------| 
B|-------------------------|---------| 
G|-6-6-6-6-6-6-6-6-6-6-6-6-|---------| 
D|-6-6-6-6-6-6-6-6-6-6-6-6-|-7-7--9--| 
A|-4-4-4-4-4-4-4-4-4-4-4-4-|-7-7--9--| 
E|-------------------------|-5-5--7--| 


Chorus 1 

e|-----------------|-----------------|-----------------|--------------------| 
B|-----------------|-----------------|-----------------|--------------------| 
G|-9-9-9-9-9-9-9-9-|-----------------|-7-7-7-7-7-7-7-7-|------7-7-------7-7-| 
D|-9-9-9-9-9-9-9-9-|-7-7-7-7-7-7-7-7-|-7-7-7-7-7-7-7-7-|-7-7--7-7--7-7--7-7-| 
A|-7-7-7-7-7-7-7-7-|-7-7-7-7-7-7-7-7-|-5-5-5-5-5-5-5-5-|-7-7--5-5--7-7--5-5-| 
E|-----------------|-5-5-5-5-5-5-5-5-|-----------------|-5-5-------5-5------| 

e|-----------------|-----------------|-----------------|--------------------| 
B|-----------------|-----------------|-----------------|--------------------| 
G|-9-9-9-9-9-9-9-9-|-----------------|-7-7-7-7-7-7-7-7-|------7-7-------7-7-| 
D|-9-9-9-9-9-9-9-9-|-4-4-4-4-4-4-4-4-|-7-7-7-7-7-7-7-7-|-7-7--7-7--7-7--7-7-| 
A|-7-7-7-7-7-7-7-7-|-4-4-4-4-4-4-4-4-|-5-5-5-5-5-5-5-5-|-7-7--5-5--7-7--5-5-| 
E|-----------------|-2-2-2-2-2-2-2-2-|-----------------|-5-5-------5-5------| 

e|--------------------------------------|--------------------------------------| 
B|--------------------------------------|--------------------------------------| 
G|--9-9-9-9-----------5-5-5-5--7-7-7-7--|--9-9-9-9-----------5-5-5-5--7-7-7-7--| 
D|--9-9-9-9--5-5-5-5--5-5-5-5--7-7-7-7--|--9-9-9-9--5-5-5-5--5-5-5-5--7-7-7-7--| 
A|--7-7-7-7--5-5-5-5--3-3-3-3--5-5-5-5--|--7-7-7-7--5-5-5-5--3-3-3-3--5-5-5-5--| 
E|-----------3-3-3-3--------------------|-----------3-3-3-3--------------------| 


verse 2 

e|-------------|-x-----------|-x-------------|-x-------------| 
B|-8--8--8-8-8-|-x-----------|-x-5--5--5-5-5-|-x-7--7--7-7-7-| 
G|-9--9--9-9-9-|-x-4--4--4-4-|-x-5--5--5-5-5-|-x-7--7--7-7-7-| 
D|-9--9--9-9-9-|-x-5--5--5-5-|-x-5--5--5-5-5-|-x-7--7--7-7-7-| 
A|-7--7--7-7-7-|-x-5--5--5-5-|-x-3--3--3-3-3-|-x-5--5--5-5-5-| 
E|-------------|-x-3--3--3-3-|-x-------------|-x-------------| 

e|-------------|-x-----------|-x-------------|----------| 
B|-8--8--8-8-8-|-x-----------|-x-5--5--5-5-5-|---5------| 
G|-9--9--9-9-9-|-x-4--4--4-4-|-x-5--5--5-5-5-|-----5----| 
D|-9--9--9-9-9-|-x-5--5--5-5-|-x-5--5--5-5-5-|-------7--| 
A|-7--7--7-7-7-|-x-5--5--5-5-|-x-3--3--3-3-3-|----------| 
E|-------------|-x-3--3--3-3-|-x-------------|-5--------| 

e|-------------|-x-----------|-x-------------|-x-------------| 
B|-8--8--8-8-8-|-x-----------|-x-5--5--5-5-5-|-x-7--7--7-7-7-| 
G|-9--9--9-9-9-|-x-4--4--4-4-|-x-5--5--5-5-5-|-x-7--7--7-7-7-| 
D|-9--9--9-9-9-|-x-5--5--5-5-|-x-5--5--5-5-5-|-x-7--7--7-7-7-| 
A|-7--7--7-7-7-|-x-5--5--5-5-|-x-3--3--3-3-3-|-x-5--5--5-5-5-| 
E|-------------|-x-3--3--3-3-|-x-------------|-x-------------| 

e|-------------|-x-----------|-x-------------|----------| 
B|-8--8--8-8-8-|-x-----------|-x-5--5--5-5-5-|---5------| 
G|-9--9--9-9-9-|-x-4--4--4-4-|-x-5--5--5-5-5-|-----5----| 
D|-9--9--9-9-9-|-x-5--5--5-5-|-x-5--5--5-5-5-|-------7--| 
A|-7--7--7-7-7-|-x-5--5--5-5-|-x-3--3--3-3-3-|----------| 
E|-------------|-x-3--3--3-3-|-x-------------|-5--------| 


Pre-Chorus 2 

e|-------------------------|---------| 
B|-------------------------|---------| 
G|-6-6-6-6-6-6-6-6-6-6-6-6-|---------| 
D|-6-6-6-6-6-6-6-6-6-6-6-6-|-7-7--9--| 
A|-4-4-4-4-4-4-4-4-4-4-4-4-|-7-7--9--| 
E|-------------------------|-5-5--7--| 


Chorus 2 

e|-----------------|-----------------|-----------------|--------------------| 
B|-----------------|-----------------|-----------------|--------------------| 
G|-9-9-9-9-9-9-9-9-|-----------------|-7-7-7-7-7-7-7-7-|------7-7-------7-7-| 
D|-9-9-9-9-9-9-9-9-|-7-7-7-7-7-7-7-7-|-7-7-7-7-7-7-7-7-|-7-7--7-7--7-7--7-7-| 
A|-7-7-7-7-7-7-7-7-|-7-7-7-7-7-7-7-7-|-5-5-5-5-5-5-5-5-|-7-7--5-5--7-7--5-5-| 
E|-----------------|-5-5-5-5-5-5-5-5-|-----------------|-5-5-------5-5------| 

e|-----------------|-----------------|-----------------|--------------------| 
B|-----------------|-----------------|-----------------|--------------------| 
G|-9-9-9-9-9-9-9-9-|-----------------|-7-7-7-7-7-7-7-7-|------7-7-------7-7-| 
D|-9-9-9-9-9-9-9-9-|-4-4-4-4-4-4-4-4-|-7-7-7-7-7-7-7-7-|-7-7--7-7--7-7--7-7-| 
A|-7-7-7-7-7-7-7-7-|-4-4-4-4-4-4-4-4-|-5-5-5-5-5-5-5-5-|-7-7--5-5--7-7--5-5-| 
E|-----------------|-2-2-2-2-2-2-2-2-|-----------------|-5-5-------5-5------| 


Bridge 
e|-----------------|-----------------|-----------------|-----------------| 
B|-----------------|-----------------|-----------------|-----------------| 
G|-6-6-6-6-6-6-6-6-|-----------------|-9-9-9-9-9-9-9-9-|-----------------| 
D|-6-6-6-6-6-6-6-6-|-7-7-7-7-7-7-7-7-|-9-9-9-9-9-9-9-9-|-9-9-9-9-9-9-9-9-| 
A|-4-4-4-4-4-4-4-4-|-7-7-7-7-7-7-7-7-|-7-7-7-7-7-7-7-7-|-9-9-9-9-9-9-9-9-| 
E|-----------------|-5-5-5-5-5-5-5-5-|-----------------|-7-7-7-7-7-7-7-7-| 

e|-----------------|-----------------|-----------------|-----------------| 
B|-----------------|-----------------|-----------------|-----------------| 
G|-6-6-6-6-6-6-6-6-|-----------------|-9-9-9-9-9-9-9-9-|-----------------| 
D|-6-6-6-6-6-6-6-6-|-7-7-7-7-7-7-7-7-|-9-9-9-9-9-9-9-9-|-6-6-6-6-6-6-6-6-| 
A|-4-4-4-4-4-4-4-4-|-7-7-7-7-7-7-7-7-|-7-7-7-7-7-7-7-7-|-6-6-6-6-6-6-6-6-| 
E|-----------------|-5-5-5-5-5-5-5-5-|-----------------|-4-4-4-4-4-4-4-4-| 

e|------------------------------|--------------------------------| 
B|------------------------------|--------------------------------| 
G|-6-6--x--6-6-6--4-------------|-9-9--x--9-9-9--9---------------| 
D|-6-6--x--6-6-6--4-7-7--x-7--7-|-9-9--x--9-9-9--9-6-6-x-6--6--6-| 
A|-4-4--x--4-4-4--6-7-7--x-7--7-|-7-7--x--7-7-7--7-6-6-x-6--6--6-| 
E|------------------5-5--x-5--5-|------------------4-4-x-4--4--4-| 

e|------------------------------|-----------------|-----------------| 
B|------------------------------|-----------------|-----------------| 
G|-6-6--x--6-6-6--4-------------|-----------------|-----------------| 
D|-6-6--x--6-6-6--4-7-7--x-7--7-|-9-9-9-9-9-9-9-9-|-9-9-9-9-9-9-9-9-| 
A|-4-4--x--4-4-4--6-7-7--x-7--7-|-9-9-9-9-9-9-9-9-|-9-9-9-9-9-9-9-9-| 
E|------------------5-5--x-5--5-|-7-7-7-7-7-7-7-7-|-7-7-7-7-7-7-7-7-| 
                                         PM               PM 

Outro 

e|-----------|-----------------|----------------------| 
B|-----------|-----------------|----------------------| 
G|-----------|-7-7-7-7-7-7-7-7-|-------7-7-------7-7--| 
D|---2---7---|-7-7-7-7-7-7-7-7-|--7-7--7-7--7-7--7-7--| 
A|---2---7---|-5-5-5-5-5-5-5-5-|--7-7--5-5--7-7--5-5--| 
E|---0---5---|-----------------|--5-5-------5-5-------| 
                     PM 
e|-----------------|-----------------|-----------------|--------------------| 
B|-----------------|-----------------|-----------------|--------------------| 
G|-9-9-9-9-9-9-9-9-|-----------------|-7-7-7-7-7-7-7-7-|------7-7-------7-7-| 
D|-9-9-9-9-9-9-9-9-|-7-7-7-7-7-7-7-7-|-7-7-7-7-7-7-7-7-|-7-7--7-7--7-7--7-7-| 
A|-7-7-7-7-7-7-7-7-|-7-7-7-7-7-7-7-7-|-5-5-5-5-5-5-5-5-|-7-7--5-5--7-7--5-5-| 
E|-----------------|-5-5-5-5-5-5-5-5-|-----------------|-5-5-------5-5------| 

e|-----------------|-----------------|-----------------|--------------------| 
B|-----------------|-----------------|-----------------|--------------------| 
G|-9-9-9-9-9-9-9-9-|-----------------|-7-7-7-7-7-7-7-7-|------7-7-------7-7-| 
D|-9-9-9-9-9-9-9-9-|-4-4-4-4-4-4-4-4-|-7-7-7-7-7-7-7-7-|-7-7--7-7--7-7--7-7-| (x3) 
A|-7-7-7-7-7-7-7-7-|-4-4-4-4-4-4-4-4-|-5-5-5-5-5-5-5-5-|-7-7--5-5--7-7--5-5-| 
E|-----------------|-2-2-2-2-2-2-2-2-|-----------------|-5-5-------5-5------| 

e|-------| 
B|-------| 
G|-------| 
D|---2---| 
A|---2---| 
E|---0---| 



************************************ 

| x   Dead note 
| PM  Palm mute 


************************************ 
  

top 5 | less than jake
top punk rock
Outras músicas do artista letras do(a) Less Than Jake
Top cifras »Top artistas »
Petaxxon Comunicação Online
Cifras.com.br - Melhor e mais completo site de cifras e tablaturas do Brasil
Mais de 1 milhão de acordes de músicas cadastradas desde 2003
As informações contidas no nosso site são colaborações de seus usuários e podem conter erros, sendo assim, não nos responsabilizamos sobre nenhuma destas.
close
menos
mais
close
Cor dos acordes:

Cor da letra:

 

save
close
close
 
redimensionar