Cifras e Tablaturas
Less Than Jake

Less Than Jake

Whatever The Weather

Cifras Cancelar Versão de Impressão
cifras

Less Than Jake - Whatever The Weather

fixar na tela  
Exibindo: vídeo-aula ver clipes redimensionar

Tom:

  
Intro 

e|-7-7-7--x-7-|--5--5--7--7--5--5-|--3--3--3--3--3--3-|-3-3-3-3-3-3--3--3-| 
B|-7-7-7--x-7-|--5--5--7--7--5--5-|--3--3--3--3--3--3-|-2-2-2-2-2-2--2--2-| 
G|-7-7-7--x-7-|--6--6--7--7--6--6-|--4--4--4--4--4--4-|-3-3-3-3-3-3--4--3-| 
D|------------|--7--7--------7--7-|--5--5--5--5--5--5-|-0-0-0-0-0-0--0--0-| (x2) 
A|------------|-------------------|-------------------|-------------------| 
E|------------|-------------------|-------------------|-------------------| 


verse 1 

e|-7--7--5--5--7--7--5--5-|--3--3--3--3--3--3-|-3-3-3-3-3-3--3--3-| 
B|-7--7--5--5--7--7--5--5-|--3--3--3--3--3--3-|-2-2-2-2-2-2--2--2-| 
G|-7--7--6--6--7--7--6--6-|--4--4--4--4--4--4-|-3-3-3-3-3-3--4--3-| 
D|-------7--7--------7--7-|--5--5--5--5--5--5-|-0-0-0-0-0-0--0--0-| (x2) 
A|------------------------|-------------------|-------------------| 
E|------------------------|-------------------|-------------------| 


Pre-Chorus 1 

e|-------------------------------|----------------------------| 
B|-------------------------------|----------------------------| 
G|-------------------------------|----------------------------| 
D|-----------------------------7-|-----------------------5--5-| 
A|-----7-------7-------4-5-5-9---|-----7------7-----9----5--5-| 
E|-5-9-----5-9-----2-5-----------|-5-9----5-9-----5---5--3--3-| 


Chorus 1 

e|-----------------|----------------|-----------------|-----------------| 
B|-----------------|----------------|-----------------|-----------------| 
G|-7-7-7-7-7-7-7-7-|----------------|-----------------|-----------------| 
D|-7-7-7-7-7-7-7-7-|-7-7-7-7-7-7--8-|-9-9-9-9-9-9-9-9-|-5-5-5-5-5-5-5-5-| 
A|-5-5-5-5-5-5-5-5-|-7-7-7-7-7-7--8-|-9-9-9-9-9-9-9-9-|-5-5-5-5-5-5-5-5-| 
E|-----------------|-5-5-5-5-5-5--6-|-7-7-7-7-7-7-7-7-|-3-3-3-3-3-3-3-3-| 

e|-----------------|----------------|-----------------|-----------------|-----------------| 
B|-----------------|----------------|-----------------|-----------------|-----------------| 
G|-7-7-7-7-7-7-7-7-|----------------|-----------------|-----------------|-----------------| 
D|-7-7-7-7-7-7-7-7-|-7-7-7-7-7-7--8-|-9-9-9-9-9-9-9-9-|-5-5-5-5-5-5-5-5-|-5-5-5-5-5-5-5-5-| 
A|-5-5-5-5-5-5-5-5-|-7-7-7-7-7-7--8-|-9-9-9-9-9-9-9-9-|-5-5-5-5-5-5-5-5-|-5-5-5-5-5-5-5-5-| 
E|-----------------|-5-5-5-5-5-5--6-|-7-7-7-7-7-7-7-7-|-3-3-3-3-3-3-3-3-|-3-3-3-3-3-3-3-3-| 


Interlude 

e|-7-7-7--x-7-|--5--5--7--7--5--5-|--3--3--3--3--3--3-|-3-3-3-3-3-3--3--3-| 
B|-7-7-7--x-7-|--5--5--7--7--5--5-|--3--3--3--3--3--3-|-2-2-2-2-2-2--2--2-| 
G|-7-7-7--x-7-|--6--6--7--7--6--6-|--4--4--4--4--4--4-|-3-3-3-3-3-3--4--3-| 
D|------------|--7--7--------7--7-|--5--5--5--5--5--5-|-0-0-0-0-0-0--0--0-| 
A|------------|-------------------|-------------------|-------------------| 
E|------------|-------------------|-------------------|-------------------| 

e|-7--7--5--5--7--7--5--5-|--3--3--3--3--3--3-|-3-3-3-3-3-3--3--3-| 
B|-7--7--5--5--7--7--5--5-|--3--3--3--3--3--3-|-2-2-2-2-2-2--2--2-| 
G|-7--7--6--6--7--7--6--6-|--4--4--4--4--4--4-|-3-3-3-3-3-3--4--3-| 
D|-------7--7--------7--7-|--5--5--5--5--5--5-|-0-0-0-0-0-0--0--0-| 
A|------------------------|-------------------|-------------------| 
E|------------------------|-------------------|-------------------| 


Pre-Chorus 2 

e|-------------------------------|----------------------------| 
B|-------------------------------|----------------------------| 
G|-------------------------------|----------------------------| 
D|-----------------------------7-|-----------------------5--5-| 
A|-----7-------7-------4-5-5-9---|-----7------7-----9----5--5-| 
E|-5-9-----5-9-----2-5-----------|-5-9----5-9-----5---5--3--3-| 



Chorus 2 

e|-----------------|----------------|-----------------|-----------------| 
B|-----------------|----------------|-----------------|-----------------| 
G|-7-7-7-7-7-7-7-7-|----------------|-----------------|-----------------| 
D|-7-7-7-7-7-7-7-7-|-7-7-7-7-7-7--8-|-9-9-9-9-9-9-9-9-|-5-5-5-5-5-5-5-5-| 
A|-5-5-5-5-5-5-5-5-|-7-7-7-7-7-7--8-|-9-9-9-9-9-9-9-9-|-5-5-5-5-5-5-5-5-| 
E|-----------------|-5-5-5-5-5-5--6-|-7-7-7-7-7-7-7-7-|-3-3-3-3-3-3-3-3-| 


e|-----------------|----------------|-----------------|-----------------|-----------------| 
B|-----------------|----------------|-----------------|-----------------|-----------------| 
G|-7-7-7-7-7-7-7-7-|----------------|-----------------|-----------------|---------7-7-----| 
D|-7-7-7-7-7-7-7-7-|-7-7-7-7-7-7--8-|-9-9-9-9-9-9-9-9-|-5-5-5-5-5-5-5-5-|-5-5-5-5-7-7-7-7-| 
A|-5-5-5-5-5-5-5-5-|-7-7-7-7-7-7--8-|-9-9-9-9-9-9-9-9-|-5-5-5-5-5-5-5-5-|-5-5-5-5-5-5-7-7-| 
E|-----------------|-5-5-5-5-5-5--6-|-7-7-7-7-7-7-7-7-|-3-3-3-3-3-3-3-3-|-3-3-3-3-----5-5-| 


Post-Chorus 

e|-------------------------------|-2-2--2-2-2--2-2-2-2-2---| 
B|-------------------------------|-3-3--3-3-3--3-3-3-3-3---| 
G|-----------------------7-7-----|-2-2--2-2-2--2-2-2-2-2---| 
D|-5-5--5-5-5--5-5-5--5--7-7-7-7-|-0-0--0-0-0--0-0-0-0-0-7-| 
A|-5-5--5-5-5--5-5-5--5--5-5-7-7-|-----------------------7-| 
E|-3-3--3-3-3--3-3-3--3------5-5-|-----------------------5-| 


Bridge 

e|---------------------------------|-------------------|----------------------| 
B|---------------------------------|-------------------|----------------------| 
G|-----------------------7-7-------|-11----9---11---7--|-11----9---11---7--7--| 
D|-5-5--5-5-5--5-5-5--5--7-7-7--5--|-12---10---11---7--|-12---10---11---7--7--| 
A|-5-5--5-5-5--5-5-5--5--5-5-7--5--|-12---10----9---5--|-12---10----9---5--5--| 
E|-3-3--3-3-3--3-3-3--3------5--3--|-------------------|----------------------| 


Chorus 3 

e|-----------------|----------------|-----------------|-----------------| 
B|-----------------|----------------|-----------------|-----------------| 
G|-7-7-7-7-7-7-7-7-|----------------|-----------------|-----------------| 
D|-7-7-7-7-7-7-7-7-|-7-7-7-7-7-7--8-|-9-9-9-9-9-9-9-9-|-5-5-5-5-5-5-5-5-| 
A|-5-5-5-5-5-5-5-5-|-7-7-7-7-7-7--8-|-9-9-9-9-9-9-9-9-|-5-5-5-5-5-5-5-5-| 
E|-----------------|-5-5-5-5-5-5--6-|-7-7-7-7-7-7-7-7-|-3-3-3-3-3-3-3-3-| 

e|-----------------|----------------|-----------------|-----------------|-----------------| 
B|-----------------|----------------|-----------------|-----------------|-----------------| 
G|-7-7-7-7-7-7-7-7-|----------------|-----------------|-----------------|-----------------| 
D|-7-7-7-7-7-7-7-7-|-7-7-7-7-7-7--8-|-9-9-9-9-9-9-9-9-|-5-5-5-5-5-5-5-5-|-5-5-5-5-5-5-5-5-| 
A|-5-5-5-5-5-5-5-5-|-7-7-7-7-7-7--8-|-9-9-9-9-9-9-9-9-|-5-5-5-5-5-5-5-5-|-5-5-5-5-5-5-5-5-| 
E|-----------------|-5-5-5-5-5-5--6-|-7-7-7-7-7-7-7-7-|-3-3-3-3-3-3-3-3-|-3-3-3-3-3-3-3-3-| 


Outro 

e|-----------------|--2--| 
B|-----------------|--3--| 
G|-----------------|--2--| 
D|-5-5-5-5-5-5-5-5-|--0--| 
A|-5-5-5-5-5-5-5-5-|-----| 
E|-3-3-3-3-3-3-3-3-|-----| 



*********************************************** 

| x   Mute note 

******************************************** 
  

top 5 | less than jake
top punk rock
Outras músicas do artista letras do(a) Less Than Jake
Top cifras »Top artistas »
Petaxxon Comunicação Online
Cifras.com.br - Melhor e mais completo site de cifras e tablaturas do Brasil
Mais de 1 milhão de acordes de músicas cadastradas desde 2003
As informações contidas no nosso site são colaborações de seus usuários e podem conter erros, sendo assim, não nos responsabilizamos sobre nenhuma destas.
close
menos
mais
close
Cor dos acordes:

Cor da letra:

 

save
close
close
 
redimensionar