Cifras e Tablaturas
Lethal

Lethal

King Of The Ring

Cifras Cancelar Versão de Impressão Print

Lethal - King Of The Ring

Tom:

  • 0:00 / 0:00
E!---------------------------------------------- 
B!---------------------------------------------- 
G!---------------------------------------------- 
D!-9------------------------------9--10--7---9-- 
A!-7------------------------------7---8--5---7-- 
E!---xxxxxxxxxxxxxxxxx---xxxxxxx---x---x---x---x 

--------------------------------! 
--------------------------------! 
--------------------------------!  X5 
-10/9--------9---10--7--9-------! 
--8/7--------7----8--5--7-------! 
------xxxxxxx---x---x--x--------! 

E!----------------------------------------------- 
B!----------------------------------------------- 
G!----------------------------------------------- 
D!-------------------9---10---7---9---10/9------- 
A!----9--8-----------7----8---5---7----8/7------- 
E!----7--6-6-7-8-XXX---X----X---X---X------XXXXXX 

-------------------------------! 
-------------------------------! 
-------------------------------! 
-9--10--7--9-------------------! 
-7---8--5--7---9-8-------------! 
X--X---X--X----7-6-6-7-8-------! 

E!----------------------------------------------- 
B!----------------------------------------------- 
G!----------------------------------------------- 
D!-9------------------------------9--10--7---9--- 
A!-7------------------------------7---8--5---7--- 
E!---xxxxxxxxxxxxxxxxx---xxxxxxx---x---x---x---x- 

--------------------------------! 
--------------------------------! 
--------------------------------!  X6 
-10/9--------9---10--7--9-------! 
--8/7--------7----8--5--7-------! 
------xxxxxxx---x---x--x--------! 

E!------------------------------------------------ 
B!------------------------------------------------ 
G!------------------------------------------------ 
D!-------------------9---10---7---9---10/9-------- 
A!----9--8-----------7----8---5---7----8/7-------- 
E!----7--6-6-7-8-xxx---x----x---x---x------xxxxxxx 

------------------------------! 
------------------------------! 
------------------------------! 
9--10--7--9-------------------! 
7---8--5--7---9-8-------------! 
--x---x--x----7-6-6-7-8-------! 


SOLO 

BASE CON RIFF 


E!--------------------------------------------------- 
B!--------------------------------------------------- 
G!--------------------------------------------------- 
D!-9------------------------------9--10--7---9---10/9 
A!-7------------------------------7---8--5---7----8/7 
E!---xxxxxxxxxxxxxxxxx---xxxxxxx---x---x---x---x----- 

---------------------------! 
---------------------------! 
---------------------------!   X4 
--------9---10--7--9-------! 
--------7----8--5--7-------! 
-xxxxxxx---x---x--x--------! 



E!---------------------------------------- 
B!---------------------------------------- 
G!---------------------------------------- 
D!-------------------9---10---7---9---10/9 
A!----9--8-----------7----8---5---7----8/7 
E!----7--6-6-7-8-xxx---x----x---x---x----- 

--------------------------------------! 
--------------------------------------! 
--------------------------------------! 
--------9--10--7--9-------------------! 
--------7---8--5--7---9-8-------8-----! 
-xxxxxxx--x---x--x----7-6-6-7-8-6-----! 

E!----------------------------------------- 
B!----------------------------------------- 
G!----------------------------------------- 
D!-------------------------SOLO------------ 
A!-------------x--x--x--------------------- 
E!---xxxxxxxxxx0xx0xx0--------------------- 

-------------------------------------! 
-------------------------------------! 
-------------------------------------! 
----SOLO-----------SOLO--------------! 
-------------------------------------! 
-------------------------------------! 

E!-----------------------------------------------| 
B!-----------------------------------------------| 
G!-----------------------------------------------| 
D!-----------------------------------------------| 
A!----9-8------------------------------9-8-------| 
E!----7-6-6-7-8-999999999999999999999997-6-6-7-8-| 


E!---------------------------------------------- 
B!---------------------------------------------- 
G!---------------------------------------------- 
D!-9------------------------------9--10--7---9-- 
A!-7------------------------------7---8--5---7-- 
E!---xxxxxxxxxxxxxxxxx---xxxxxxx---x---x---x---x 

--------------------------------! 
--------------------------------! 
--------------------------------!  X4 
-10/9--------9---10--7--9-------! 
--8/7--------7----8--5--7-------! 
------xxxxxxx---x---x--x--------! 

E!------------------------------------------------ 
B!------------------------------------------------ 
G!------------------------------------------------ 
D!-------------------9---10---7---9---10/9-------- 
A!----9--8-----------7----8---5---7----8/7-------- 
E!----7--6-6-7-8-xxx---x----x---x---x------xxxxxxx 

------------------------------! 
------------------------------! 
------------------------------! 
9--10--7--9-------------------! 
7---8--5--7--9--8-------------! 
--x---x--x---7--6-6-7-8-------! 

E!------------------------------------------------- 
B!------------------------------------------------- 
G!------------------------------------------------- 
D!----9---10---7---9---10/9------------------------ 
A!----7----8---5---7----8/7--9--8--------9--8------ 
E!------x----x---x---x-------7--6-6-7-8--7--6-6-7-8 


-----------------------------! 
-----------------------------! 
-----------------------------! 
----9-7-11-------------------! 
----7-5--9-------------------! 
-----------------------------! 

BUENO CHE, ESTA ES MI VERSION DE ESTE TEMASO, 
SUENA BASTANTE BIEN, EL SOLO ES JODIDO Y 
 ME FALTA SACAR UN PAR DE COSAS, PERO YA 
LO VOY A SUBIR! AGUANTE EL THRASH Y AGUANTE LETHAL CARAJO!!!

enviado porenviado por: ang-letra
cifra enviadaCorrigida por: sem correções
logo top cifrasComente
ico música do artistaMúsicas deste artista
ico curtiuCurtiu?
ico destaqueDestaque
Petaxxon Comunicação Online

Cifras.com.br - Melhor e mais completo site de cifras e tablaturas do Brasil Mais de 1 milhão de acordes de músicas cadastradas desde 2003
As informações contidas no nosso site são colaborações de seus usuários e podem conter erros, sendo assim, não nos responsabilizamos sobre nenhuma destas.

close
menos
mais
close
Cor dos acordes:

Cor da letra:

close
Alinhar acordes a direita Alinhar acordes a esquerda Alinhar acordes em baixo Alinhar acordes no topo
close
  Mostrar todos os acordes Esconder acordes muito fáceis Esconder acordes fáceis Esconder acordes intermediários
redimensionar
glossário