Cifras e Tablaturas
Letlive

Letlive

A Weak Ago

Cifras Cancelar Versão de Impressão
cifras

Letlive - A Weak Ago

fixar na tela  
Exibindo: vídeo-aula ver clipes redimensionar
  
Intro  
D#|---2-------------2------------------------------------------------| 
A#|---3-------------2------------------------------------------------| 
F#|---4-----4-4--3--3------------------------------------------------| 
C#|---------5-5--4--4-----------9-9--4--5-5-5-4------4b5r4--0--------| 
G#|-2-------5-5--4--4--------xx-9-9--4--5-5-5-4---------------4-1/2--|  
D#|-----2/3---3--2--2--2/7-7-xx-7-7--2--3-3-3-2--0h2-----------------| 

D#|--2--------------2-----------------------------| 
A#|--3--------------2-----------------------------| 
F#|--4------4-4--3--3--------------------------3--| 
C#|---------5-5--4--4------------9-9--4--5-5-5-4--| 
G#|---------5-5--4--4--------xx--9-9--4--5-5-5-4--|  
D#|-----2/3---3--2--2--2/7-7 xx--7-7--2--3-3-3-2--| 


D#|-2-2-2----3-3-3--2-2--2-2-2-2-2-2-2----3-3-3-2-------------------| 
A#|-3-3-3----3-3-3--2-2--2-3-3-3-3-3-3----3-3-3-2-------------------| 
F#|-4-4-4----4-4-4--3-3--3-4-4-4-4-4-4--3-4-4-4-3-------------------| 
C#|-4-4-4--4/5-5-5--4-4--4-4-4-4-4-4-4--4-5-5-5-4------4b5r4--0-----| 
G#|-2-2-2--4/5-5-5--4-4--4-2-2-2-2-2-2--4-5-5-5-4---------------4-1/| 
D#|--------2/3-3-3--2-2--2--------------2-3-3-3-2--0h2--------------| 

D#|--2-2-2----3-3-3--2-2--2-2-2-2-2-2-2----3-3-3--2---------------------| 
A#|--3-3-3----3-3-3--2-2--2-3-3-3-3-3-3----3-3-3--2---------------------| 
F#|--4-4-4----4-4-4--3-3--3-4-4-4-4-4-4--3-4-4-4--3------------------4--| 
C#|--4-4-4--4/5-5-5--4-4--4-4-4-4-4-4-4--4-5-5-5--4------4b5r4-0-----4--| 
G#|-/2-2-2--4/5-5-5--2-4--4-2-2-2-2-2-2--4-5-5-5--4--------------4-1/2--| 
D#|---------2/3-3-3--2-2--2--------------2-3-3-3--2--0h2----------------| 

Verse 
Roll down the tone knob for this part. In the recording they let the final chord ring out, but ignore that  
if you want to play the Pre-Chorus too. 

D#|--2---3---0------2---3---7---2~------2---3---0--| 
A#|--3---3---0------3---3---8---2~------3---3---0--| 
F#|--4---4---4------4---4---9---3~------4---4---4--| 
C#|------------------------------------------------| 
G#|------------------------------------------------| 
D#|------------------------------------------------| 

Pre-Chorus 
D#|------0h2-------0---| 
A#|----3---------3-----| 
F#|--4---------4-------| x8 
C#|----------4---------| 
G#|--------------------| 
D#|--------------------| 

Chorus 
D#|-2-2-2----3-3-3---2-2---2-2-2-2-2-2-2-----3-3-3-2-------------------| 
A#|-3-3-3----3-3-3---2-2---2-3-3-3-3-3-3-----3-3-3-2-------------------| 
F#|-4-4-4----4-4-4---3-3---3-4-4-4-4-4-4--3--4-4-4-3-------------------| 
C#|-4-4-4--4/5-5-5---4-4---4-4-4-4-4-4-4--4--5-5-5-4------4b5r4--0-----| 
G#|-2-2-2--4/5-5-5---4-4---4-2-2-2-2-2-2--4--5-5-5-4---------------4-1/| 
D#|--------2/3-3-3---2-2---2--------------2--3-3-3-2--0h2--------------| 

D#|-2-2-2----3-3-3---2-2---2-2-2-2-2-2-2-----3-3-3-2---------------------| 
A#|-3-3-3----3-3-3---2-2---2-3-3-3-3-3-3-----3-3-3-2---------------------| 
F#|-4-4-4----4-4-4---3-3---3-4-4-4-4-4-4--3--4-4-4-3------------------4--| 
C#|-4-4-4--4/5-5-5---4-4---4-4-4-4-4-4-4--4--5-5-5-4------4b5r4-0-----4--| 
G#|-2-2-2--4/5-5-5---4-4---4-2-2-2-2-2-2--4--5-5-5-4--------------4-1/2--| 
D#|--------2/3-3-3---2-2---2--------------2--3-3-3-2--0h2----------------| 

verse 2 
D#|--2---3---0------2---3---7---2~--| 
A#|--3---3---0------3---3---8---2~--| 
F#|--4---4---4------4---4---9---3~--| 
C#|---------------------------------| 
G#|---------------------------------| 
D#|---------------------------------| 

Pre-Chorus 
D#|------0h2-------0---| 
A#|----3---------3-----| 
F#|--4---------4-------| x8 
C#|----------4---------| 
G#|--------------------| 
D#|--------------------| 

Chorus 
D#|-2-2-2----3-3-3---2-2---2-2-2-2-2-2-2-----3-3-3-2-------------------| 
A#|-3-3-3----3-3-3---2-2---2-3-3-3-3-3-3-----3-3-3-2-------------------| 
F#|-4-4-4----4-4-4---3-3---3-4-4-4-4-4-4--3--4-4-4-3-------------------| 
C#|-4-4-4--4/5-5-5---4-4---4-4-4-4-4-4-4--4--5-5-5-4------4b5r4--0-----| 
G#|-2-2-2--4/5-5-5---4-4---4-2-2-2-2-2-2--4--5-5-5-4---------------4-1/| 
D#|--------2/3-3-3---2-2---2--------------2--3-3-3-2--0h2--------------| 

D#|-2-2-2----3-3-3---2-2---2-2-2-2-2-2-2-----3-3-3-2-------------------| 
A#|-3-3-3----3-3-3---2-2---2-3-3-3-3-3-3-----3-3-3-2-------------------| 
F#|-4-4-4----4-4-4---3-3---3-4-4-4-4-4-4--3--4-4-4-3-------------------| 
C#|-4-4-4--4/5-5-5---4-4---4-4-4-4-4-4-4--4--5-5-5-4------4b5r4--0-----| 
G#|-2-2-2--4/5-5-5---4-4---4-2-2-2-2-2-2--4--5-5-5-4---------------4-1/| 
D#|--------2/3-3-3---2-2---2--------------2--3-3-3-2--0h2--------------| 

D#|-2-2-2----3-3-3---2-2---2-2-2-2-2-2-2-----3-3-3-2-------------------| 
A#|-3-3-3----3-3-3---2-2---2-3-3-3-3-3-3-----3-3-3-2-------------------| 
F#|-4-4-4----4-4-4---3-3---3-4-4-4-4-4-4--3--4-4-4-3-------------------| 
C#|-4-4-4--4/5-5-5---4-4---4-4-4-4-4-4-4--4--5-5-5-4------4b5r4--0-----| 
G#|-2-2-2--4/5-5-5---4-4---4-2-2-2-2-2-2--4--5-5-5-4---------------4-1/| 
D#|--------2/3-3-3---2-2---2--------------2--3-3-3-2--0h2--------------| 

D#|-2-2-2----3-3-3---2-2---2-2-2-2-2-2-2-----3-3-3-2---------------------| 
A#|-3-3-3----3-3-3---2-2---2-3-3-3-3-3-3-----3-3-3-2---------------------| 
F#|-4-4-4----4-4-4---3-3---3-4-4-4-4-4-4--3--4-4-4-3------------------4--| 
C#|-4-4-4--4/5-5-5---4-4---4-4-4-4-4-4-4--4--5-5-5-4------4b5r4-0-----4--| 
G#|-2-2-2--4/5-5-5---4-4---4-2-2-2-2-2-2--4--5-5-5-4--------------4-1/2--| 
D#|--------2/3-3-3---2-2---2--------------2--3-3-3-2--0h2----------------| 

Guitar Solo 

Rhythm Guitar: 
D#|-2-2-2-2-2-2-2-3---3-3-2---2-2-2---2-2-2-2-2-2-2-3---3-3-2---2-2-2-| 
A#|-3-3-3-3-3-3-3-3---3-3-2---2-2-2---3-3-3-3-3-3-3-3---3-3-2---2-2-2-| 
F#|-4-4-4-4-4-4-4-4---4-4-3---3-3-3---4-4-4-4-4-4-4-4---4-4-3---3-3-3-| 
C#|-4-4-4-4-4-4-4-5---5-5-4---4-4-4---4-4-4-4-4-4-4-5---5-5-4---4-4-4-| 
G#|-2-2-2-2-2-2-2-5---5-5-4---4-4-4---2-2-2-2-2-2-2-5---5-5-4---4-4-4-| 
D#|---------------3---3-3-2---2-2-2-----------------3---3-3-2---2-2-2-| 

D#|----------------------------------2-2-2-2-2-2-2-2-2-2-2-2-2-2-2-2-| 
A#|----------------------------------2-2-2-2-2-2-2-2-2-2-2-2-2-2-2-2-| 
F#|----------------------------------3-3-3-3-3-3-3-3-3-3-3-3-3-3-3-3-| 
C#|-2-2-2-2-2-2-2-2-2-2-2-2-2-2-2-2--4-4-4-4-4-4-4-4-4-4-4-4-4-4-4-4-| 
G#|-2-2-2-2-2-2-2-2-2-2-2-2-2-2-2-2--4-4-4-4-4-4-4-4-4-4-4-4-4-4-4-4-| 
D#|-0-0-0-0-0-0-0-0-0-0-0-0-0-0-0-0--2-2-2-2-2-2-2-2-2-2-2-2-2-2-2-2-| 

Lead Guitar: 

In the live videos I've seen they usually improvise the solo, so if you want to do that use an A# minor scale. 
The first half of the solo is just this over and over: 
D#|---------| 
A#|--17b19--| 
F#|---------| 
C#|---------| 
G#|---------| 
D#|---------| 

But the bit at the end goes: 

D#|-------17-------17-------17----------------------------------------------------------------| 
A#|-17b19----17b19----17b19-----17b19-17b19-17b19-17b19-17b19--17mb-17mb-17mb-17mb-17mb-17mb--| 
F#|-------------------------------------------------------------------------------------------| 
C#|-------------------------------------------------------------------------------------------| 
G#|-------------------------------------------------------------------------------------------| 
D#|-------------------------------------------------------------------------------------------| 

D#|--------------------------------| 
A#|-17----15-----15----------------| 
F#|----------16--------16-14-------| 
C#|--------------------------16-14-| 
G#|--------------------------------| 
D#|--------------------------------| 

Bridge 
D#|---2-------------2--------------------------------0--| 
A#|---3-------------2--------------------------------0--| 
F#|---4-----4-4---3-3--------------------------------0--| 
C#|---------5-5---4-4------------9-9--4--5-5-5-4-----0--| 
G#|-2-------5-5---4-4---------xx-9-9--4--5-5-5-4--------|  
D#|-----2/3---3---2-2---2/7-7-xx-7-7--2--3-3-3-2--------| 

Final Chorus 
D#|-2-2--2-2--3-3-3--2--2--2-2-2-2-2-2-2-----3-3-3--2-------------------| 
A#|-3-3--2-2--3-3-3--2--3--2-3-3-3-3-3-3-----3-3-3--2-------------------| 
F#|-4-4--3-3--4-4-4--3--3--3-4-4-4-4-4-4--3--4-4-4--3-------------------| 
C#|-4-4--4-4--5-5-5--4--4--4-4-4-4-4-4-4--4--5-5-5--4------4b5r4--0-----| 
G#|-2-2--4-4--5-5-5--4--4--4-2-2-2-2-2-2--4--5-5-5--4---------------4-1/| 
D#|------2-2--3-3-3--2--2--2--------------2--3-3-2-----0h2--------------| 

D#|-2-2--2-2--3-3-3--2--2--2-2-2-2-2-2-2-----3-3-3--2-------------------| 
A#|-3-3--2-2--3-3-3--2--2--2-3-3-3-3-3-3-----3-3-3--2-------------------| 
F#|-4-4--3-3--4-4-4--3--3--3-4-4-4-4-4-4--3--4-4-4--3-------------------| 
C#|-4-4--4-4--5-5-5--4--4--4-4-4-4-4-4-4--4--5-5-5--4------4b5r4--0-----| 
G#|-4-4--4-4--5-5-5--4--4--4-2-2-2-2-2-2--4--5-5-5--4---------------4-1/| 
D#|-2-2--2-2--3-3-3--2--2--2--------------2--3-3-3--2--0h2--------------| 

Note that the rhythms are different in the second half! 

D#|-2-2--2-2--3-3-3--2--2-2-2--2-2-2-2-2-2-2-2------3-3-3-2--------------------| 
A#|-3-3--2-2--3-3-3--2--2-2-2--3-3-3-3-3-3-3-3------3-3-3-2--------------------| 
F#|-4-4--3-3--4-4-4--3--3-3-3--4-4-4-4-4-4-4-4--3-3-4-4-4-3--------------------| 
C#|-4-4--4-4--5-5-5--4--4-4-4--4-4-4-4-4-4-4-4--4-4-5-5-5-4-------4b5r4--0-----| 
G#|-2-2--4-4--5-5-5--4--4-4-4--2-2-2-2-2-2-2-2--4-4-5-5-5-4----------------4-1/| 
D#|------2-2--3-3-3--2--2-2-2-------------------2-2-3-3-3-2---0h2--------------| 

D#|-2-2--2-2--3-3-3--2--2-2-2--2-2-2-2-2-2-2-2------3-3-3-2---------------------| 
A#|-3-3--2-2--3-3-3--2--2-2-2--3-3-3-3-3-3-3-3------3-3-3-2---------------------| 
F#|-4-4--3-3--4-4-4--3--3-3-3--4-4-4-4-4-4-4-4--3-3-4-4-4-3-------------------4-| 
C#|-4-4--4-4--5-5-5--4--4-4-4--4-4-4-4-4-4-4-4--4-4-5-5-5-4------4b5r4--0-----4-| 
G#|-2-2--4-4--5-5-5--4--4-4-4--2-2-2-2-2-2-2-2--4-4-5-5-5-4---------------4-1/2-| 
D#|------2-2--3-3-3--2--2-2-2-------------------2-2-3-3-3-2--0h2----------------| 

  

************************************ 

| r  Release 
| b  Bend 
| x  Dead note 
| /  Slide up 
| h  Hammer-on 
| ~  Vibrato 
| mb Micro-bend (just under a semi-tone)   

************************************ 
  

top 5 | letlive
top rock'n roll
Outras músicas do artista letras do(a) Letlive
Top cifras »Top artistas »
Petaxxon Comunicação Online
Cifras.com.br - Melhor e mais completo site de cifras e tablaturas do Brasil
Mais de 1 milhão de acordes de músicas cadastradas desde 2003
As informações contidas no nosso site são colaborações de seus usuários e podem conter erros, sendo assim, não nos responsabilizamos sobre nenhuma destas.
close
menos
mais
close
Cor dos acordes:

Cor da letra:

 

save
close
close
 
redimensionar