Cifras e Tablaturas
Lewis Del Mar

Lewis Del Mar

Loud(y)

Cifras Cancelar Versão de Impressão
cifras

Lewis Del Mar - Loud(y)

fixar na tela  
Exibindo: vídeo-aula ver clipes redimensionar

Tom:

  Intro 

E|----------------------------------------------------------------------------| 
B|----------------------------------------------------------------------------| 
G|------------------------5/2-------------------------------------------------|  
D|----------------7--7----7/3-------------------------------------------------|    
A|----5---5--5-8--------------------------------------------------------------| 
E|----------------------------------------------------------------------------|(x2) 

Break 

E|----------------------------------------------------------------------------| 
B|----------------------------------------------------------------------------| 
G|----------7-7------7-7-------7-7--------7-7---------------------------------| 
D|----------------------------------------------------------------------------| 
A|----------------------------------------------------------------------------| 
E|----------------------------------------------------------------------------| 

Pre-Chorus 

E|----------------5-----------------------------------------------------------| 
B|-------6--8--6-----8--6-8-6-------------------------------------------------| 
G|----7-----------------------------------------------------------------------|  
D|----------------------------------------------------------------------------| 
A|----------------------------------------------------------------------------| 
E|----------------------------------------------------------------------------| 

Chorus  

E|----------------------------------------------------------------------------| 
B|----------6/1---------6/1-------6/1-------6/1-------------------------------| 
G|----------7/2---------7/2-------7/2-------7/2-------------------------------|  
D|----------------------------------------------------------------------------|    
A|--(5-5-5)-----(3-3-3)-------------------------------------------------------| 
E|------------------------(3-3-3)---(1-1-1)-----------------------------------|(x4) 

Intro 

E|----------------------------------------------------------------------------| 
B|----------------------------------------------------------------------------| 
G|------------------------5/2-------------------------------------------------|  
D|----------------7--7----7/3-------------------------------------------------| 
A|----5---5--5-8--------------------------------------------------------------| 
E|----------------------------------------------------------------------------|(x4) 

Break 

Chorus 

E|----------------------------------------------------------------------------| 
B|----------6/1---------6/1-------6/1-------6/1-------------------------------| 
G|----------7/2---------7/2-------7/2-------7/2-------------------------------|  
D|----------------------------------------------------------------------------|    
A|--(5-5-5)-----(3-3-3)-------------------------------------------------------| 
E|------------------------(3-3-3)---(1-1-1)-----------------------------------|(x4) 


Bridge/Pre-Chorus 


E|----------------5-----------------------------------------------------------| 
B|-------6--8--6-----8--6-8-6-------------------------------------------------| 
G|----7-----------------------------------------------------------------------|  
D|----------------------------------------------------------------------------|    
A|----------------------------------------------------------------------------| 
E|----------------------------------------------------------------------------|(x5) 


Chorus 

E|----------------------------------------------------------------------------| 
B|----------6/1---------6/1-------6/1-------6/1-------------------------------| 
G|----------7/2---------7/2-------7/2-------7/2-------------------------------|  
D|----------------------------------------------------------------------------|    
A|--(5-5-5)-----(3-3-3)-------------------------------------------------------| 
E|------------------------(3-3-3)---(1-1-1)-----------------------------------|(x8) 
  

top 5 | lewis del mar
top rock'n roll
Outras músicas do artista letras do(a) Lewis Del Mar
Top cifras »Top artistas »
Petaxxon Comunicação Online
Cifras.com.br - Melhor e mais completo site de cifras e tablaturas do Brasil
Mais de 1 milhão de acordes de músicas cadastradas desde 2003
As informações contidas no nosso site são colaborações de seus usuários e podem conter erros, sendo assim, não nos responsabilizamos sobre nenhuma destas.
close
menos
mais
close
Cor dos acordes:

Cor da letra:

 

save
close
close
 
redimensionar