Cifras e Tablaturas
Lianne La Havas

Lianne La Havas

Unstoppable

Cifras Cancelar Versão de Impressão
cifras

Lianne La Havas - Unstoppable

fixar na tela  
Exibindo: vídeo-aula ver clipes redimensionar
  
  (Piano) 

   Gb/Ab  
e|---------------------------------------------------------------------------| 
B|--2-----------2-----------2-----------2------------------------------------| 
G|--3-----------3-----------3-----------3------------------------------------| 
D|--4-----------4-----------4-----------4------------------------------------| 
A|---------------------------------------------------------------------------| 
E|--4-----------4-----------4-----------4------------------------------------| 
  
  (Guitar)  

   Gb/Ab 
e|---------------------------------------------------------------------------| 
B|----11----11----11----11----11----11----11----11---------------------------| 
G|------11----11----11----11----11----11----11----11-------------------------| 
D|--------11----11----11----11----11----11----11-----------------------------| 
A|--11-----------------------------------------------------------------------| 
E|---------------------------------------------------------------------------| 

   

   (Piano)  

   Gb/Ab  
e|---------------------------------------------------------------------------| 
B|--2-----------2-----------2-----------2------------------------------------| 
G|--3-----------3-----------3-----------3------------------------------------| 
D|--4-----------4-----------4-----------4------------------------------------| 
A|---------------------------------------------------------------------------| 
E|--4-----------4-----------4-----------4------------------------------------| 
  
   (Guitar) 

    Gb/Ab 
e|---------------------------------------------------------------------------| 
B|----11----11----11----11----11----11----11----11---------------------------| 
G|------11----11----11----11----11----11----11----11-------------------------| 
D|--------11----11----11----11----11----11----11-----------------------------| 
A|--11-----------------------------------------------------------------------| 
E|---------------------------------------------------------------------------| 



  (Piano) 

   Ab/Bb                    
e|---------------------------------------------------------------------------| 
B|--4-----------4-----------4-----------4------------------------------------| 
G|--5-----------5-----------5-----------5------------------------------------| 
D|--6-----------6-----------6-----------6------------------------------------| 
A|---------------------------------------------------------------------------| 
E|--6-----------6-----------6-----------6------------------------------------| 
  
  (Guitar) 

   Ab/Bb                     
e|---------------------------------------------------------------------------| 
B|----13----13----13----13----13----13----13----13---------------------------| 
G|------13----13----13----13----13----13----13----13-------------------------| 
D|--------13----13----13----13----13----13----13-----------------------------| 
A|--13-----------------------------------------------------------------------| 
E|---------------------------------------------------------------------------| 



  (Piano) 

   Bb9                   
e|---------------------------------------------------------------------------| 
B|---------------------------------------------------------------------------| 
G|--7-----------7-----------7-----------7------------------------------------| 
D|--6-----------6-----------6-----------6------------------------------------| 
A|--8-----------8-----------8-----------8------------------------------------| 
E|--6-----------6-----------6-----------6------------------------------------| 

  (Guitar) 

   Bb9                      
e|---------------------------------------------------------------------------| 
B|----13----13----13----13----13----13----13----13---------------------------| 
G|------13----13----13----13----13----13----13----13-------------------------| 
D|--------12----12----12----12----12----12----12-----------------------------| 
A|--13-----------------------------------------------------------------------| 
E|---------------------------------------------------------------------------| 
 
  

cifra enviadasem correções
enviado porenviada por:brunblazkowski
top 5 | lianne la havas
top pop music
Outras músicas do artista letras do(a) Lianne La Havas
3.
Gone
Top cifras »Top artistas »
Petaxxon Comunicação Online
Cifras.com.br - Melhor e mais completo site de cifras e tablaturas do Brasil
Mais de 1 milhão de acordes de músicas cadastradas desde 2003
As informações contidas no nosso site são colaborações de seus usuários e podem conter erros, sendo assim, não nos responsabilizamos sobre nenhuma destas.
close
menos
mais
close
Cor dos acordes:

Cor da letra:

 

save
close
close
 
redimensionar