Cifras e Tablaturas
Lifter Puller
Cifras Cancelar Versão de Impressão

Lifter Puller - Mono

Tom:

  			First Part 

(Guitar one plays this while the second guitar comes in & out with slight variations.) 

e|---------------------------------------------------------------------| 
B|---------------------------------------------------------------------| 
G|---------------------------------------------------------------------| 
D|-0-0-0-0-0-0-0-0-0-0-0-0-0-0-0-0-------------------------------------| x2 
A|-2-2-2-2-2-2-2-2-2-2-2-2-2-2-2-2-3-3-3-3-3-3-3-2--2-2-2-2-2-2-2-0----| 
E|-3-3-3-3-3-3-3-3-3-3-3-3-3-3-3-3-------------------------------------| 
"We were talking in the hall phone.  
You said your boyfriend finally scored" 


Second Part 

e|------------------------------------| 
B|------------------------------------| 
G|------------------------------------| 
D|-0-0-0-0-0-0-0-0-0-0-0-0-0-0-0-0----| 
A|-2-2-2-2-2-2-2-2-2-2-2-2-2-2-2-2----| 
E|-3-3-3-3-3-3-3-3-3-3-3-3-3-3-3-3----| 
"Now i've got something they call..." 

e|--------------------------------------------------------------------| 
B|--------------------------------------------------------------------| 
G|-0-0-0-0-0-0-0-0-0-0-0-0-0-0-0-0-0-0-0-0-0-0-0-0-0-0-0-0-0-0-0-0----| 
D|-3-3-3-3-3-3-3-3-3-3-3-3-3-3-3-3-3-3-3-3-3-3-3-3-3-3-3-3-3-3-3-3----| 
A|-3-3-3-3-3-3-3-3-3-3-3-3-3-3-3-3-3-3-3-3-3-3-3-3-3-3-3-3-3-3-3-3----| 
E|--------------------------------------------------------------------| 
"mononucleosis but i'll stay up if you wanna talk some..." 


(while Guitar Three plays Part 1) 

(GUITAR ONE)  
e|-----------| 
B|-----------| 
G|-0~--0~----| 
D|-----0~----| 
A|-3~--2~----| 
E|-3~--3~----| 
"more." 

(GUITAR TWO) 
e|--------------------------------------------------------------------| 
B|--------------------------------------------------------------------| 
G|-0-0-0-0-0-0-0-0-0-0-0-0-0-0-0-0-0-0-0-0-0-0-0-0-0-0-0-0-0-0-0-0----| 
D|---------------------------------0-0-0-0-0-0-0-0-0-0-0-0-0-0-0-0----| 
A|-3-3-3-3-3-3-3-3-3-3-3-3-3-3-3-3-2-2-2-2-2-2-2-2-5-5-5-5-5-5-5-5----| 
E|-3-3-3-3-3-3-3-3-3-3-3-3-3-3-3-3-3-3-3-3-3-3-3-3-5-5-5-5-5-5-5-5----| 


Jammy Outro 

(GUITAR 1) 
e|-3N-2N-5N----| 
B|-0N-0N-0N----| 
G|-------------| 
D|-------------| 
A|-------------| 
E|-------------| 

(GUITAR 2) 
e|-----3~----| 
B|-----3~----| 
G|-0~--0~----| 
D|-----------| 
A|-3~--------| 
E|-3~--------| 

(GUITAR 3) 
e|--------------------------------------------------------------------| 
B|--------------------------------------------------------------------| 
G|-0-0-0-0-0-0-0-0-0-0-0-0-0-0-0-0-0-0-0-0-0-0-0-0-0-0-0-0-0-0-0-0----| 
D|---------------------------------0-0-0-0-0-0-0-0-0-0-0-0-0-0-0-0----| 
A|-3-3-3-3-3-3-3-3-3-3-3-3-3-3-3-3-2-2-2-2-2-2-2-2-5-5-5-5-5-5-5-5----| 
E|-3-3-3-3-3-3-3-3-3-3-3-3-3-3-3-3-3-3-3-3-3-3-3-3-5-5-5-5-5-5-5-5----| 


************************************ 
| N   Tremolo Picking 
|~    Vibrato 
************************************ 
    	
fixar
fixar inscrever-se

enviado porenviado por: ang-letra
cifra enviadaCorrigida por: sem correções
logo top cifrasComente
ico música do artistaMúsicas deste artista
ico curtiuCurtiu?
ico destaqueDestaque
Petaxxon Comunicação Online

Cifras.com.br - Melhor e mais completo site de cifras e tablaturas do Brasil Mais de 1 milhão de acordes de músicas cadastradas desde 2003
As informações contidas no nosso site são colaborações de seus usuários e podem conter erros, sendo assim, não nos responsabilizamos sobre nenhuma destas.

close
menos
mais
close
Cor dos acordes:

Cor da letra:

close
Alinhar acordes a direita Alinhar acordes a esquerda Alinhar acordes em baixo Alinhar acordes no topo
close
  Mostrar todos os acordes Esconder acordes muito fáceis Esconder acordes fáceis Esconder acordes intermediários
redimensionar
glossário