Cifras e Tablaturas
Lights

Lights

New Fears

Cifras Cancelar Versão de Impressão

Lights - New Fears

Tom: Em

  			
Verse 
    Em        Em    Am        Am    Am                   C        Em 
e|---0---------0-|---0---------0-|---0---------------|---0---------0-| 
B|---0---------0-|---1---------1-|---1---------------|---1---------0-| 
G|---0---------0-|---2---------2-|---2---------------|---0---------0-| 
D|---2-2p0-0h2-2-|---2-2p0-0h2-2-|---2-2p0-0h2-------|---2-2p0-0h2-2-| x 2 
A|---2---------2-|-0-0---------0-|-0-0---------2-3---|---3---------2-| 
E|-0-0---------0-|---------------|-----------------3-|-0-0---------0-| 

Pre-Chorus 
     D         D     C         C    Am        Am    Bm    Am  
e|---2---------2-|---0---------0-|---0---------0--|--2--|--0--| 
B|---3---------3-|---1---------1-|---1---------1--|--3--|--1--| 
G|---2-2p0-0h2-2-|---0---------0-|---2---------2--|--4--|--2--| 
D|-0-0---------0-|---2-2p0-0h2-2-|---2-2p0-0h2-2--|--4--|--2--| 
A|---------------|-3-3---------3-|-0-0---------0--|--2--|--0--| 
E|---------------|---0---------0-|----------------|-----|-----| 

Chorus 
   Em     C    Am    Bm Am            C    Em     D     C Bm         Em     C    Am    Bm Am    
e|--0--|--0--|--0--|--2--0--|      |--0--|--0--|--2--|--0--2--|    |--0--|--0--|--0--|--2--0--| 
B|--0--|--1--|--1--|--3--1--|      |--1--|--0--|--3--|--1--3--|    |--0--|--1--|--1--|--3--1--| 
G|--0--|--0--|--2--|--4--2--| x 2  |--0--|--0--|--2--|--0--4--|    |--0--|--0--|--2--|--4--2--| 
D|--2--|--2--|--2--|--4--2--|      |--2--|--2--|--0--|--2--4--|    |--2--|--2--|--2--|--4--2--| 
A|--2--|--3--|--0--|--2--0--|      |--3--|--2--|-----|--3--2--|    |--2--|--3--|--0--|--2--0--| 
E|--0--|--0--|-----|--------|      |--0--|--0--|-----|--0-----|    |--0--|--0--|-----|--------| 

Bridge 
    C    Em     D     C Bm 
e|--0--|--0--|--2--|--0--2--| 
B|--1--|--0--|--3--|--1--3--| 
G|--0--|--0--|--2--|--0--4--| x 4 
D|--2--|--2--|--0--|--2--4--| 
A|--3--|--2--|-----|--3--2--| 
E|--0--|--0--|-----|--0-----| 

Ending 
    Em 
e|--0:--| 
B|--0:--| 
G|--0:--| 
D|--2:--| 
A|--2:--| 
E|--0:--| 
 
    	
fixar
fixar inscrever-se

enviado porenviado por: educastilho
cifra enviadaCorrigida por: sem correções
logo top cifrasComente
ico música do artistaMúsicas deste artista
ico curtiuCurtiu?
ico destaqueDestaque
Petaxxon Comunicação Online

Cifras.com.br - Melhor e mais completo site de cifras e tablaturas do Brasil Mais de 1 milhão de acordes de músicas cadastradas desde 2003
As informações contidas no nosso site são colaborações de seus usuários e podem conter erros, sendo assim, não nos responsabilizamos sobre nenhuma destas.

close
menos
mais
close
Cor dos acordes:

Cor da letra:

close
Alinhar acordes a direita Alinhar acordes a esquerda Alinhar acordes em baixo Alinhar acordes no topo
close
  Mostrar todos os acordes Esconder acordes muito fáceis Esconder acordes fáceis Esconder acordes intermediários
redimensionar
glossário