Cifras e Tablaturas
Like Moths To Flames
Cifras Cancelar Versão de Impressão

Like Moths To Flames - Gnf

Tom: A#

  			
Lead Guitar: 
C |-------------------------------------------------------| 
G |-------------------------------------------------------| 
D#|-------------------------------------------------------| 
A#|-------------------------------------------------------| 
F |---0--0--0--0--0----0-----0-0-0---0--0--0--0--0----0---| 
A#|---1--1--1--1--1----1-----1-1-1---1--1--1--1--1----1---| 
pm . . . . . . . . . . . . . . . .  . . . . . . . . . . .  

C |-------------------------------------------------------| 
G |-------------------------------------------------------| 
D#|-------------------------------------------------------| 
A#|-------------------------------------------------------| 
F |---0--0--0----0--0--0-----0--0--0--0--0----0---0-0-0---| 
A#|---1--1--1----1--1--1-----1--1--1--1--1----1---1-1-1---| 
pm . . . . . . . . . . . . . . . .  . . . . . . . . . . .  

C |-------------------------------------------------------| 
G |-------------------------------------------------------| 
D#|-------------------------------------------------------| 
A#|-------------------------------------------------------| 
F |---0--0--0--0--0----0-----0-0-0---0--0--0--0--0----0---| 
A#|---1--1--1--1--1----1-----1-1-1---1--1--1--1--1----1---| 
pm . . . . . . . . . . . . . . . .  . . . . . . . . . . .  

C |-------------------------------------------------| 
G |-------------------------------------------------| 
D#|-------------------------------------------------| 
A#|----------------------------1---1----------------| 
F |---0--0--0----0--0--0-------1---1----------------| 
A#|---1--1--1----1--1--1-----0---0---0-0-0---0---0--| 
pm . . . . . . . . . . . . . .   .  . . . . . . . .  

C |------------------------------------------------------------------------------------| 
G |------------------------------------------------------------------------------------| 
D#|------------------------------------------------------------------------------------| 
A#|----------------------------------------------------------------1---1---------------| 
F |----------1---------------1--3-3-3-3-3--0--0--0----0--0--0------1---1---------------| 
A#|-3--1--0------3--1--0--0-----3-3-3-3-3--1--1--1----1--1--1----0---0---0-0-0---0---0-| 

C |-----------------------------------------------------------------| 
G |-----------------------------------------------------------------| 
D#|-----------------------------------------------------------------| 
A#|--------------------------------------------1---1----------------| 
F |------------------------------3-3-3-3-3-----1---1----------------| 
A#|--0--0--0--0---0--0--0--0--0--3-3-3-3-3---0---0---0-0-0---0---0--| 
pm . . . . . . . . . . . . . ..|  

C |------------------------------------------------------------------------------------| 
G |------------------------------------------------------------------------------------| 
D#|------------------------------------------------------------------------------------| 
A#|----------------------------------------------------------------1---1---------------| 
F |----------1---------------1--3-3-3-3-3--0--0--0----0--0--0------1---1---------------| 
A#|-3--1--0------3--1--0--0-----3-3-3-3-3--1--1--1----1--1--1----0---0---0-0-0---0---0-| 

C |--------------------------------------------| 
G |--------------------------------------------| 
D#|--------------------------------------------| 
A#|--------------------------------------------| 
F |--------------------------------3-3-3-3-3---| 
A#|--0--0--0--0----0--0--0--0--0---3-3-3-3-3---| 
pm . . . . . . . . . . . . . . .|  

C |------------------------------------------------------------------| 
G |------------------------------------------------------------------| 
D#|-11-11-11-11-11-11-11-11-11-11-11-11-11-11-11-11-11-11-11-11-11-11| 
A#|--x-x-x-x-x-x-x-x-x-x-x-x-x-x-x-x-x-x-x-x-x-x-x-x-x-x-x-x-x-x-x-x-| 
F |--9-9-9-9-9-9-9-9-9-9-9-9-9-9-9-9-9-9-9-9-9-9-9-9-9-9-9-9-9-9-9-9-| 
A#|------------------------------------------------------------------| 

C |------------------------------------------------------------------| 
G |-11-11-11-11-11-11-11-11-11-11-11-10101010101010101010101010101010| 
D#|--x-x-x-x-x-x-x-x-x-x-x-x-x-x-x-x-x-x-x-x-x-x-x-x-x-x-x-x-x-x-x-x-| 
A#|--8-8-8-8-8-8-8-8-8-8-8-8-8-8-8-8-8-8-8-8-8-8-8-8-8-8-8-8-8-8-8-8-| 
F |------------------------------------------------------------------| 
A#|------------------------------------------------------------------| 

C |------------------------------------------------------------------| 
G |------------------------------------------------------------------| 
D#|-11-11-11-11-11-11-11-11-11-11-11-11-11-11-11-11-11-11-11-11-11-11| 
A#|--x-x-x-x-x-x-x-x-x-x-x-x-x-x-x-x-x-x-x-x-x-x-x-x-x-x-x-x-x-x-x-x-| 
F |--9-9-9-9-9-9-9-9-9-9-9-9-9-9-9-9-9-9-9-9-9-9-9-9-9-9-9-9-9-9-9-9-| 
A#|------------------------------------------------------------------| 

C |------------------------------------------------------------------| 
G |-11-11-11-11-11-11-11-11-11-11-11-10101010101010101010101010101010| 
D#|--x-x-x-x-x-x-x-x-x-x-x-x-x-x-x-x-x-x-x-x-x-x-x-x-x-x-x-x-x-x-x-x-| 
A#|--8-8-8-8-8-8-8-8-8-8-8-8-8-8-8-8-7-7-7-7-7-7-7-7-7-7-7-7-7-7-7-7-| 
F |------------------------------------------------------------------| 
A#|------------------------------------------------------------------| 

C |----------------------------------------------------------| 
G |----------------------------------------------------------| 
D#|----------------------------------------------------------| 
A#|----------------------------------------------------------| 
F |------------------------0---0--0----0----0--0----0-0-0----| 
A#|----1^1-------1---1-----1---1--1----1----1--1----1-1-1----| 
                        pm . . . .  . . . . . . . . . . .  
bend down to the third string (^) 

C |----------------------------------------------------------| 
G |----------------------------------------------------------| 
D#|----------------------------------------------------------| 
A#|----------------------------------------------------------| 
F |----0----0--0----0----0--0------0----------0----0--0----0-| 
A#|----1----1--1----1----1--1------1---0--0---1----1--1----1-| 
pm . . . . . . . . . . . . . . . . . .        . . . . . . . . 

C |---------------------------------------------------------------| 
G |---------------------------------------------------------------| 
D#|-------------------------------------------------------------7-| 
A#|-------------------------------------------------------------x-| 
F |----0--0--------0--0--0-----0-----0--0----0-0-----0----------5-| 
A#|----1--1--------1--1--1-----1-----1--1----1-1-----1---0--0-----| 
pm . . . . . . . . . . . . . . . . . . . . . . . . . . 

C |------------------------------------------------| 
G |------------------------------------------------| 
D#|------------------------------------------------| 
A#|------------------------------------------------| 
F |-----------------0--0--0--0---------------------| 
A#|-------0---------0--0--0--0---------0--0--0--0--|  

C |---------------------------------------------------------------------------| 
G |---------------------------------------------------------------------------| 
D#|---------------------------------------------------------------------------| 
A#|---------------------------------------------------------------------------| 
F |----------------5^---------5^-----------------------5^------5-6-6-6-6-6-6-6| 
A#|-------0--0--0-----0--0--0----0--0--0--0---0--0--0-----0--0----------------| 
pm . . . . . . . .    . . .      . . . . . . . . . . .    . . .    . . . . . . 

C |---------------------------------------------------------------------------| 
G |---------------------------------------------------------------------------| 
D#|---------------------------------------------------------------------------| 
A#|---------------------------------------------------------------------------| 
F |----------------5^---------5^-----------------------5^------5-6-6-6-6-6-6-6| 
A#|-------0--0--0-----0--0--0----0--0--0--0---0--0--0-----0--0----------------| 
pm . . . . . . . .    . . .      . . . . . . . . . . .    . . .    . . . . . . 

C |---------------------------------------------------------------------------| 
G |---------------------------------------------------------------------------| 
D#|---------------------------------------------------------------------------| 
A#|---------------------------------------------------------------------------| 
F |----------------5^---------5^-----------------------5^------5-6-6-6-6-6-6-6| 
A#|-------0--0--0-----0--0--0----0--0--0--0---0--0--0-----0--0----------------| 
pm . . . . . . . .    . . .      . . . . . . . . . . .    . . .    . . . . . . 

C |--------------------------------------------| 
G |--------------------------------------------| 
D#|--------------------------------------------| 
A#|--------------------------------------------| 
F |--0--0--0--0----0--0--0--0--0----3-3-3-3-3--| 
A#|--0--0--0--0----0--0--0--0--0----3-3-3-3-3--| 
pm . . . . . . . . . . . . . . . 

C |-------------------------------------------------------------------| 
G |-------------------------------------------------------------------| 
D#|-------------------------------------------------------------------| 
A#|----1---1----------------------------------------------------------| 
F |----1---1---------------------------1---------------1----3-3-3-3-3-| 
A#|--0---0---0-0-0---0----0---3--1--0------3--1--0--0-------3-3-3-3-3-| 
pm . .   .   . . . 

C |--------------------------------------------------------------------| 
G |--------------------------------------------------------------------| 
D#|--------------------------------------------------------------------| 
A#|----1---1-----------------------------------------------------------| 
F |----1---1-------------------------------------------------3-3-3-3-3-| 
A#|--0---0---0-0-0---0----0----0--0--0--0---0--0--0--0--0----3-3-3-3-3-| 
pm . .   .   . . .             . . . . . . . . . . . . . . 

C |-------------------------------------------------------------------| 
G |-------------------------------------------------------------------| 
D#|-------------------------------------------------------------------| 
A#|----1---1----------------------------------------------------------| 
F |----1---1---------------------------1---------------1----3-3-3-3-3-| 
A#|--0---0---0-0-0---0----0---3--1--0------3--1--0--0-------3-3-3-3-3-| 
pm . .   .   . . . 

C |--------------------------------------------------------------------| 
G |--------------------------------------------------------------------| 
D#|--------------------------------------------------------------------| 
A#|----1---1-----------------------------------------------------------| 
F |----1---1-------------------------------------------------3-3-3-3-3-| 
A#|--0---0---0-0-0---0----0----0--0--0--0---0--0--0--0--0----3-3-3-3-3-| 
pm . .   .   . . .             . . . . . . . . . . . . . . 

C |------------------------------------------------------------------| 
G |------------------------------------------------------------------| 
D#|-11-11-11-11-11-11-11-11-11-11-11-11-11-11-11-11-11-11-11-11-11-11| 
A#|--x-x-x-x-x-x-x-x-x-x-x-x-x-x-x-x-x-x-x-x-x-x-x-x-x-x-x-x-x-x-x-x-| 
F |--9-9-9-9-9-9-9-9-9-9-9-9-9-9-9-9-9-9-9-9-9-9-9-9-9-9-9-9-9-9-9-9-| 
A#|------------------------------------------------------------------| 

C |------------------------------------------------------------------| 
G |-11-11-11-11-11-11-11-11-11-11-11-10101010101010101010101010101010| 
D#|--x-x-x-x-x-x-x-x-x-x-x-x-x-x-x-x-x-x-x-x-x-x-x-x-x-x-x-x-x-x-x-x-| 
A#|--8-8-8-8-8-8-8-8-8-8-8-8-8-8-8-8-8-8-8-8-8-8-8-8-8-8-8-8-8-8-8-8-| 
F |------------------------------------------------------------------| 
A#|------------------------------------------------------------------| 

C |------------------------------------------------------------------| 
G |------------------------------------------------------------------| 
D#|-11-11-11-11-11-11-11-11-11-11-11-11-11-11-11-11-11-11-11-11-11-11| 
A#|--x-x-x-x-x-x-x-x-x-x-x-x-x-x-x-x-x-x-x-x-x-x-x-x-x-x-x-x-x-x-x-x-| 
F |--9-9-9-9-9-9-9-9-9-9-9-9-9-9-9-9-9-9-9-9-9-9-9-9-9-9-9-9-9-9-9-9-| 
A#|------------------------------------------------------------------| 

C |------------------------------------------------------------------| 
G |-11-11-11-11-11-11-11-11-11-11-11-10101010101010101010101010101010| 
D#|--x-x-x-x-x-x-x-x-x-x-x-x-x-x-x-x-x-x-x-x-x-x-x-x-x-x-x-x-x-x-x-x-| 
A#|--8-8-8-8-8-8-8-8-8-8-8-8-8-8-8-8-7-7-7-7-7-7-7-7-7-7-7-7-7-7-7-7-| 
F |------------------------------------------------------------------| 
A#|------------------------------------------------------------------| 

C |--10--------------/11---13--------------------------| 
G |------11--------------------15-----------18--20-----| 
D#|-----------11--------------------15--------------19-| 
A#|----------------------------------------------------| 
F |----------------------------------------------------| 
A#|----------------------------------------------------| 
(/) half note 

C |--10--------------/11---13--------------------------| 
G |------11--------------------15-----------18--20-----| 
D#|-----------11--------------------15--------------19-| 
A#|----------------------------------------------------| 
F |----------------------------------------------------| 
A#|----------------------------------------------------| 

C |------------------------------------------------------------| 
G |------------------------------------------------------------| 
D#|------------------------------------------------------------| 
A#|------------------------------------------------------------| 
F |------------------------------------------------------------| 
A#|----1^1---1-----1^1---1----1-----------1--1--------1--1--1--| 
bend down to the third string (^)        pm . . . .  . . . . . 

C |-------------------------------------------------| 
G |-------------------------------------------------| 
D#|-------------------------------------------------| 
A#|-------------------------------------------------| 
F |-------------------------------------------------| 
A#|----1^1---1-------1----------1--1-------1--0--0--| 
                                 pm . . . .  . . . . 

C |-------------------------------------------------| 
G |-------------------------------------------------| 
D#|-------------------------------------------------| 
A#|-------------------------------------------------| 
F |-------------------------------------------------| 
A#|----1^1---1-------1----------1--1-------1--1--1--| 
                                 pm . . . .  . . . . 

C |-------------------------------------------------| 
G |-------------------------------------------------| 
D#|-------------------------------------------------| 
A#|-------------------------------------------------| 
F |-------------------------------------------------| 
A#|----1^1---1-------1----------1--1-------1--0--0--| 
                                 pm . . . .  . . . . 

C |-----------------------------------------------------------| 
G |-----------------------------------------------------------| 
D#|-----------------------------------------------------------| 
A#|-----------------------------------------------------------| 
F |----0----0--0----0----0--0------0--0--0------0---0--0----0-| 
A#|----1----1--1----1----1--1------1--1--1------1---1--1----1-| 
pm . . . . . . . . . . . . . . . . . . . . . . . . . . . . . . 

C |----------------------------------------| 
G |----------------------------------------| 
D#|----------------------------------------| 
A#|----------------------------------------| 
F |---0--0------0----------0-----0--0----0-| 
A#|---1--1------1---0--0---1-----1--1----1-| 
pm . . . . . . . . . . . . . . . . . . . . 

C |--------------------------------------------------------------| 
G |--------------------------------------------------------------| 
D#|--------------------------------------------------------------| 
A#|--------------------------------------------------------------| 
F |----0--0-------0--0--0-----0-----0--0----0-----0--0---0-------| 
A#|----1--1-------1--1--1-----1-----1--1----1-----1--1---1--0--0-| 
pm . . . . . . . . . . . . . . . . . . . . . . . . . . . . . . .  

 ________________ 
|                | 
| ^  Bend        | 
| /  Slide up    | 
| x  Dead Note   | 
| pm Palm Mute   | 
|________________| 

I RECOMMEND GUITAR PRO OR TAB PRO FOR THIS SONG! 
These tabs should be accurate, I've played this multiple times and it seems really simple.  
A lot of repeats but it's still a great song! 
    	
fixar
fixar inscrever-se

enviado porenviado por: LINEKERS
cifra enviadaCorrigida por: sem correções
logo top cifrasComente
ico música do artistaMúsicas deste artista
ico curtiuCurtiu?
ico destaqueDestaque
Petaxxon Comunicação Online

Cifras.com.br - Melhor e mais completo site de cifras e tablaturas do Brasil Mais de 1 milhão de acordes de músicas cadastradas desde 2003
As informações contidas no nosso site são colaborações de seus usuários e podem conter erros, sendo assim, não nos responsabilizamos sobre nenhuma destas.

close
menos
mais
close
Cor dos acordes:

Cor da letra:

close
Alinhar acordes a direita Alinhar acordes a esquerda Alinhar acordes em baixo Alinhar acordes no topo
close
  Mostrar todos os acordes Esconder acordes muito fáceis Esconder acordes fáceis Esconder acordes intermediários
redimensionar
glossário