Cifras e Tablaturas
Like Moths To Flames

Like Moths To Flames

You Won't Be Missed

Cifras Cancelar Versão de Impressão

Like Moths To Flames - You Won't Be Missed

Tom:

  			
 Intro:  

e|------------------------------------| 
B|------------------------------------| 
G|------------------------------------| 
D|------------------------------------| 
A|--4------3----4------3------1---1/3-| 
E|----3--1---1----3--1---1--00--00----|  (4x) 

 Breakdown:  

e|---0--------------------------| 
B|---0--------------------------| 
G|---0--------------------------| 
D|------------------------------| 
A|--0---0--0000--0--0--0--0--00-| 
E|--1---1--1111--1--1--1--1--11-|  (4x)  

 Verse:  

e|-----------| 
B|-----------| 
G|-----------| 
D|-----------| 
A|--0~~~-4~~~| 
E|--0~~~-4~~~| 

e|--------------------------------------------------------------------------| 
B|--------------------------------------------------------------------------| 
G|--------------------------------------------------------------------------|  
D|--------------------------------------------------------------------------| 
A|--------------------------------------------------------------------------| 
E|--0-0-12h13-0-0-0-0-0-0-12h13-10h12-0-0-0-0-10h12-0-0-0-0-12h13-0-0-10/12-| 
                                                                               (2x)   
e|--------------------------------------------------------------------------|       
B|--------------------------------------------------------------------------|     
G|--------------------------------------------------------------------------|    
D|--------------------------------------------------------------------------|     
A|--------------------------------------------------------------------------| 
E|--0-0-12h13-0-0-0-0-0-0-12h13-10h12-0-0-0-0-10h12-0-0-0-0-10h12-0-0-8/10--| 

 Chorus:  

e|-------8----8-----------8----8----10p8-----------|--10------------13-13-12----| 
B|---------------------------------------10p8------|-----10------------------13-| 
G|--9/10---10---10---9/10---10---10-----------(2x)-|--------10~-9p10------------| 
D|-------------------------------------------------|----------------------------|   Repeat  
A|-------------------------------------------------|----------------------------| 
E|-------------------------------------------------|----------------------------| 

 Breakdown 2:  

e|---0--------------------------| 
B|---0--------------------------| 
G|---0--------------------------| 
D|------------------------------| 
A|--0---0--0000--0--0--0--0--00-| 
E|--1---1--1111--1--1--1--1--11-|  (2x) 

e|---0-------------------| 
B|---0-------------------| 
G|---0-------------------| 
D|-----------------------| 
A|--0----0---0-0-0-0--00-| 
E|--1----1---1-1-1-1--11-|  (2x)  

 Verse:  

e|--------------------------------------------------------------------------|  
B|--------------------------------------------------------------------------|   
G|--------------------------------------------------------------------------|    
D|--------------------------------------------------------------------------|     
A|--------------------------------------------------------------------------|      
E|--0-0-12h13-0-0-0-0-0-0-12h13-10h12-0-0-0-0-10h12-0-0-0-0-12h13-0-0-10/12-|       
                                                                              (2x)
e|--------------------------------------------------------------------------|        
B|--------------------------------------------------------------------------|      
G|--------------------------------------------------------------------------|     
D|--------------------------------------------------------------------------|       
A|--------------------------------------------------------------------------|   
E|--0-0-12h13-0-0-0-0-0-0-12h13-10h12-0-0-0-0-10h12-0-0-0-0-10h12-0-0-8/10--|  

 Chorus:  

e|-------8----8-----------8----8----10p8-----------|--10------------13-13-12----| 
B|---------------------------------------10p8------|-----10------------------13-| 
G|--9/10---10---10---9/10---10---10-----------(2x)-|--------10~-9p10------------| 
D|-------------------------------------------------|----------------------------|   Repeat  
A|-------------------------------------------------|----------------------------| 
E|-------------------------------------------------|----------------------------| 

 Outro:  

e|--8--------------8p5--------8-------------10----10------------10------13-12-----------------| 
B|------6------6--------5/3-------6------6-----10-----10-----------10----------13~/15--13p10~~| 
G|----------9-------------------------9-------------------10-9--------------------------------| 
D|--------------------------------------------------------------------------------------------| 
A|--------------------------------------------------------------------------------------------| 
E|--------------------------------------------------------------------------------------------| 
 
    	
fixar
fixar inscrever-se

enviado porenviado por: andrsouza
cifra enviadaCorrigida por: sem correções
logo top cifrasComente
ico música do artistaMúsicas deste artista
ico curtiuCurtiu?
ico destaqueDestaque
Petaxxon Comunicação Online

Cifras.com.br - Melhor e mais completo site de cifras e tablaturas do Brasil Mais de 1 milhão de acordes de músicas cadastradas desde 2003
As informações contidas no nosso site são colaborações de seus usuários e podem conter erros, sendo assim, não nos responsabilizamos sobre nenhuma destas.

close
menos
mais
close
Cor dos acordes:

Cor da letra:

close
Alinhar acordes a direita Alinhar acordes a esquerda Alinhar acordes em baixo Alinhar acordes no topo
close
  Mostrar todos os acordes Esconder acordes muito fáceis Esconder acordes fáceis Esconder acordes intermediários
redimensionar
glossário