Cifras e Tablaturas
LiL PEEP

LiL PEEP

Tears

Cifras Cancelar Versão de Impressão
cifras

LiL PEEP - Tears

fixar na tela  
Exibindo: vídeo-aula ver clipes redimensionar

Tom:

  Intro 
You were nothin' more to me than 

Guitar 1 
e|-----0----0------0-------0----0--------------0----0------0-------0----0------0--| 
B|--5-------------------5--------------5----5-------------------5-----------------| 
G|4--------------4----6--------------6--------------------------------------------| 
D|----------------------------------------4--------------4-------------------4----| 
A|--------------------------------------------------------------------------------| 
E|--------------------------------------------------------------------------------| 
When you loved me in my dreams                              

Guitar 1 
e|-----0----0------0-------0----0--------------0----0------0-------0----0------0--| 
B|--5-------------------5--------------5----5-------------------5-----------------| 
G|4--------------4----6--------------6--------------------------------------------| 
D|----------------------------------------4--------------4-------------------4----| 
A|--------------------------------------------------------------------------------| 
E|--------------------------------------------------------------------------------| 

Guitar 2 
e|7----------------------------------4-------------------2------------------------| 
B|--------------------------------------------------------------------------------| 
G|--------------------------------------------------------------------------------| 
D|--------------------------------------------------------------------------------| 
A|--------------------------------------------------------------------------------| 
E|--------------------------------------------------------------------------------| 
Still dreaming about you             you know I'm crazy about you 

Guitar 1 
e|-----0----0------0-------0----0--------------0----0------0-------0----0------0--| 
B|--5-------------------5--------------5----5-------------------5-----------------| 
G|4--------------4----6--------------6--------------------------------------------| 
D|----------------------------------------4--------------4-------------------4----| 
A|--------------------------------------------------------------------------------| 
E|--------------------------------------------------------------------------------| 

Guitar 2 
e|7----------------------------------4-------------------2------------------------| 
B|--------------------------------------------------------------------------------| 
G|--------------------------------------------------------------------------------| 
D|--------------------------------------------------------------------------------| 
A|--------------------------------------------------------------------------------| 
E|--------------------------------------------------------------------------------| 
you know I'm crazy about you                           yeah yeah  

Guitar 1 
e|-----0----0------0-------0----0--------------0----0------0-------0----0------0--| 
B|--5-------------------5--------------5----5-------------------5-----------------| 
G|4--------------4----6--------------6--------------------------------------------| 
D|----------------------------------------4--------------4-------------------4----| 
A|--------------------------------------------------------------------------------| 
E|--------------------------------------------------------------------------------| 

Guitar 2 
e|7----------------------------------4-------------------2------------------------| 
B|--------------------------------------------------------------------------------| 
G|--------------------------------------------------------------------------------| 
D|--------------------------------------------------------------------------------| 
A|--------------------------------------------------------------------------------| 
E|--------------------------------------------------------------------------------| 

Chorus  
I remember the first time             baby this is the last time 
Guitar 1 
e|-----0----0------0-------0----0--------------0----0------0-------0----0------0--| 
B|--5-------------------5--------------5----5-------------------5-----------------| 
G|4--------------4----6--------------6--------------------------------------------| 
D|----------------------------------------4--------------4-------------------4----| 
A|--------------------------------------------------------------------------------| 
E|--------------------------------------------------------------------------------| 

Guitar 2 
e|7----------------------------------4-------------------2------------------------| 
B|--------------------------------------------------------------------------------| 
G|--------------------------------------------------------------------------------| 
D|--------------------------------------------------------------------------------| 
A|--------------------------------------------------------------------------------| 
E|--------------------------------------------------------------------------------| 
you were nothing more to me than when you loved me in my dreams 

Guitar 1 
e|-----0----0------0-------0----0--------------0----0------0-------0----0------0--| 
B|--5-------------------5--------------5----5-------------------5-----------------| 
G|4--------------4----6--------------6--------------------------------------------| 
D|----------------------------------------4--------------4-------------------4----| 
A|--------------------------------------------------------------------------------| 
E|--------------------------------------------------------------------------------| 

Guitar 2 
e|7----------------------------------4-------------------2------------------------| 
B|--------------------------------------------------------------------------------| 
G|--------------------------------------------------------------------------------| 
D|--------------------------------------------------------------------------------| 
A|--------------------------------------------------------------------------------| 
E|--------------------------------------------------------------------------------| 
Still dreamin about you              you know I'm crazy about you 

Guitar 1 
e|-----0----0------0-------0----0--------------0----0------0-------0----0------0--| 
B|--5-------------------5--------------5----5-------------------5-----------------| 
G|4--------------4----6--------------6--------------------------------------------| 
D|----------------------------------------4--------------4-------------------4----| 
A|--------------------------------------------------------------------------------| 
E|--------------------------------------------------------------------------------| 

Guitar 2 
e|7----------------------------------4-------------------2------------------------| 
B|--------------------------------------------------------------------------------| 
G|--------------------------------------------------------------------------------| 
D|--------------------------------------------------------------------------------| 
A|--------------------------------------------------------------------------------| 
E|--------------------------------------------------------------------------------| 
there is nothing more to me than you  i  died that day you left my room in tears 

Guitar 1 
e|-----0----0------0-------0----0--------------0----0------0-------0----0------0--| 
B|--5-------------------5--------------5----5-------------------5-----------------| 
G|4--------------4----6--------------6--------------------------------------------| 
D|----------------------------------------4--------------4-------------------4----| 
A|--------------------------------------------------------------------------------| 
E|--------------------------------------------------------------------------------| 

Guitar 2 
e|7----------------------------------4-------------------2------------------------| 
B|--------------------------------------------------------------------------------| 
G|--------------------------------------------------------------------------------| 
D|--------------------------------------------------------------------------------| 
A|--------------------------------------------------------------------------------| 
E|--------------------------------------------------------------------------------| 
  

top 5 | lil peep
top rock'n roll
Outras músicas do artista letras do(a) LiL PEEP
Top cifras »Top artistas »
Petaxxon Comunicação Online
Cifras.com.br - Melhor e mais completo site de cifras e tablaturas do Brasil
Mais de 1 milhão de acordes de músicas cadastradas desde 2003
As informações contidas no nosso site são colaborações de seus usuários e podem conter erros, sendo assim, não nos responsabilizamos sobre nenhuma destas.
close
menos
mais
close
Cor dos acordes:

Cor da letra:

 

save
close
close
 
redimensionar