Cifras e Tablaturas
Lily Allen

Lily Allen

Higher

Cifras Cancelar Versão de Impressão

Lily Allen - Higher

Tom:

  			Intro 

e|--------------|-------------|------------------|-----------------------| 
B|-7-7---9/10-9-|----9/14-10--|-7-7----10/12-12--|----14-10--------------| 
G|-----9--------|-------------|-----9------------|-----------------------| 
D|-0------------|-------------|-0----------------|-----------------------| 
A|--------------|-7-----------|------------------|--7--------------------| 
E|--------------|-------------|------------------|-----------------------| 


e|--------------|-------------|------------------|-----------------------| 
B|-7-7---9/10-9-|----9/14-10--|-7-7----10/12-12--|----12/14--10----------| 
G|-----9--------|-------------|-----9------------|-----------------------| 
D|-0------------|-------------|-0----------------|-----------------------| 
A|--------------|-7-----------|------------------|-7---------------------| 
E|--------------|-------------|------------------|-----------------------|  
    	
fixar
fixar inscrever-se

enviado porenviado por: tamamoreira
cifra enviadaCorrigida por: sem correções
logo top cifrasComente
ico música do artistaMúsicas deste artista
ico curtiuCurtiu?
ico destaqueDestaque
Petaxxon Comunicação Online

Cifras.com.br - Melhor e mais completo site de cifras e tablaturas do Brasil Mais de 1 milhão de acordes de músicas cadastradas desde 2003
As informações contidas no nosso site são colaborações de seus usuários e podem conter erros, sendo assim, não nos responsabilizamos sobre nenhuma destas.

close
menos
mais
close
Cor dos acordes:

Cor da letra:

close
Alinhar acordes a direita Alinhar acordes a esquerda Alinhar acordes em baixo Alinhar acordes no topo
close
  Mostrar todos os acordes Esconder acordes muito fáceis Esconder acordes fáceis Esconder acordes intermediários
redimensionar
glossário