Cifras e Tablaturas
linkin park & jay-z

linkin park & jay-z

Points of authority/99 problems/1 stp closer

Cifras Cancelar Versão de Impressão Print

linkin park & jay-z - Points of authority/99 problems/1 stp closer

Tom:

  • 0:00 / 0:00
  			Intro 
 
Eb|-----7-------7--------- 
Bb|---8---8---8---8------- Essa parte é da picape, 
Gb|-9-------9-------9----- mas fica legalzinho se vc  
Db|----------------------- tocar assim. 
Ab|----------------------- 
Db|----------------------- 
 
 
Db|-22-x-3-xx-3-2-xx-22-x-3-22-x-00-x-3-- 
Ab|-22-x-3-xx-3-2-xx-22-x-3-22-x-00-x-3-- 
Db|-22-x-3-xx-3-2-xx-22-x-3-22-x-00-x-3-- 
 
Refrão 
Gb|-3---------4-- 
Db|-2---------3-- 
Ab|-2---------3-- 
Db|-2---------3-- 
essa e a parte de points 
Agora e a parte de one step 
intro 
eb ----------------------- 
Bb ----------------------- x4 
F# ----------------------- 
c# ----------------------- 
G# ----------*7----------- 
C# --0--*5-0----8-7--0-3-- 
    
 
after intro 
eb ---------------------- 
Bb ---------------------- x4 
F# ---------9---------5-- 
c# --0-0--0-x---8-7-0-x-- 
G# --0-0--0-7---8-7-0-3-- 
C# --0-0--0-----8-7-0---- 
 
verse 
eb ---------------------- 
Bb ---------------------- x8 
F# ---------9---------5-- 
c# --0-0--0-x---8-7-0-x-- 
G# --0-0--0-7---8-7-0-3-- 
C# --0-0--0-----8-7-0---- 
   pm.................... 
 
pre Chorus 1 
eb ------------------------------------------ 
Bb ------------------------------------------ x1 
F# ------------------------------------------ 
c# --5-5--x-x---x-5-5--x-x---x-5-5--x-x---x-- 
G# --5-5--x-x---x-5-5--x-x---x-5-5--x-x---x-- 
C# --5-5--x-x---x-5-5--x-x---x-5-5--x-x---x-- 
 
Chorus 
eb ------------------------------------------ 
Bb ------------------------------------------ x2 
F# ------------------------------------------ 
c# --0-0-12-12--10-10-7-7--8-8-5-5--7-7-3-3-- 
G# --0-0-12-12--10-10-7-7--8-8-5-5--7-7-3-3-- 
C# --0-0-12-12--10-10-7-7--8-8-5-5--7-7-3-3-- 
 
verse 
eb ---------------------- 
Bb ---------------------- 
F# ---------9---------5-- 
c# --0-0--0-x---8-7-0-x-- 
G# --0-0--0-7---8-7-0-7-- 
C# --0-0--0-----8-7-0---- 
   pm.................... 
 
pre Chorus 2 
eb --------------------------------*5-*5-*5-*5-- 
Bb --------------------------------------------- 
F# --------------------------------------------- 
c# --5-5--x-x---x-5-5--x-x---x-5-5-------------- 
G# --5-5--x-x---x-5-5--x-x---x-5-5-------------- 
C# --5-5--x-x---x-5-5--x-x---x-5-5-------------- 
 
Chorus 
eb ------------------------------------------ 
Bb ------------------------------------------ x3 
F# ------------------------------------------ 
c# --0-0-12-12--10-10-7-7--8-8-5-5--7-7-3-3-- 
G# --0-0-12-12--10-10-7-7--8-8-5-5--7-7-3-3-- 
C# --0-0-12-12--10-10-7-7--8-8-5-5--7-7-3-3-- 
 
Chorus cont. 
eb ----------------------------------------------------------- 
Bb ----------------------------------------------------------- x1 
F# ----------------------------------------------------------- 
c# --0-0-12-12--10-10-7-7--8-8-5-5--7-7-3-3--1-1-1-1-1-1-1-1-- 
G# --0-0-12-12--10-10-7-7--8-8-5-5--7-7-3-3--1-1-1-1-1-1-1-1-- 
C# --0-0-12-12--10-10-7-7--8-8-5-5--7-7-3-3--1-1-1-1-1-1-1-1-- 
 
bridge (quando Chester diz  "shut up") 
eb ----------------------- 
Bb ----------------------- x8 
F# ----------------------- 
c# --1-0-x-x-x-1-3-1-0-6-- 
G# --1-0-x-x-x-1-3-1-0-6-- 
C# --1-0-x-x-x-1-3-1-0-6-- 
 
Chorus  
eb ------------------------------------------ 
Bb ------------------------------------------ x3 
F# ------------------------------------------ 
c# --0-0-12-12--10-10-7-7--8-8-5-5--7-7-3-3-- 
G# --0-0-12-12--10-10-7-7--8-8-5-5--7-7-3-3-- 
C# --0-0-12-12--10-10-7-7--8-8-5-5--7-7-3-3-- 
 
Chorus cont. 
eb ----------------------------------------------------------- 
Bb ----------------------------------------------------------- x1 
F# ----------------------------------------------------------- 
c# --0-0-12-12--10-10-7-7--8-8-5-5--7-7-3-3--1-1-1-1-1-1-1-1-- 
G# --0-0-12-12--10-10-7-7--8-8-5-5--7-7-3-3--1-1-1-1-1-1-1-1-- 
C# --0-0-12-12--10-10-7-7--8-8-5-5--7-7-3-3--1-1-1-1-1-1-1-1-- 
 
 

    	

enviado porenviado por: brad_delson
cifra enviadaCorrigida por: sem correções
logo top cifrasComente
ico música do artistaMúsicas deste artista
ico curtiuCurtiu?
ico destaqueDestaque
Petaxxon Comunicação Online

Cifras.com.br - Melhor e mais completo site de cifras e tablaturas do Brasil Mais de 1 milhão de acordes de músicas cadastradas desde 2003
As informações contidas no nosso site são colaborações de seus usuários e podem conter erros, sendo assim, não nos responsabilizamos sobre nenhuma destas.

close
menos
mais
close
Cor dos acordes:

Cor da letra:

close
Alinhar acordes a direita Alinhar acordes a esquerda Alinhar acordes em baixo Alinhar acordes no topo
close
  Mostrar todos os acordes Esconder acordes muito fáceis Esconder acordes fáceis Esconder acordes intermediários
redimensionar
glossário