Cifras e Tablaturas
Linkin Park

Linkin Park

Lying from you

Ano: 2003
Album : Meteora

Cifras Cancelar Versão de Impressão Print

Linkin Park - Lying from you

Tom:

  			introdução:
    
Eb|---------|-----------------------|---------------
Bb|---------|-----------------------|---------------
Gb|---------|-----------------------|---------------
Db|2-2-1-1-0-1-2-1-0-2-6~-----------|---------------
Ab|2-2-1-1-0-1-2-1-0-2-6~-----------|---------------
eb|2-2-1-1-0-1-2-1-0-2-6~-----------|---------------

When i pretend
eb|------|------|-------|
Bb|------|------|-------|
Gb|------|------|-------|
Db|-2-2--|-4--4-|-3-----|
Ab|-2-2--|-4--4-|-3-----|
Db|-2-2--|-2--2-|-3-----|

everything is what i want it to be
i look exactly like what you had always wanted to see
when i pretend
i can forget about the criminal i am
stealing second after second just cause i know i can / but
i can't pretend this is the way it will stay / i'm just
trying to bend the truth
i can't pretend i'm who you want me to be 
so i'm 
lying my way from you 

refrão

Eb|----------------------------------|-------------
Bb|----------------------------------|-------------
Gb|------11-11-11-117-7-7-7/9-9-9-9-|-------------
Db|-2-2--X--X--X--X-X-X-X-X/X-X-X-X-|5-5-5 4-4-4--
Ab|-2-2--9--9-9-9-9-5-5-5-5/7-7-7-7-|5-5-5-5-5-5--
Db|-0-0------------------------------|3-3-3-5-5-5--


Eb|----------------------------------|-------------
Bb|----------------------------------|-------------
Gb|------11-11-11-117-7-7-7/9-9-9-9-|-------------
Db|-2-2--X--X--X--X-X-X-X-X/X-X-X-X-|7-7-7-4-4-4--
Ab|-3-3--9--9-9-9-9-5-5-5-5/7-7-7-7-|7-7-7-5-5-5--
Db|-3-3------------------------------|5-5-5-5-5-5--

(no / no turning back now)
i wanna be pushed aside 
so let me go
(no / no turning back now)
let me take back my life 
i'd rather be all alone
(no turning back now)
anywhere on my own
cause i can see
(no / no turning back now)
the very worst part of you 
is me 

verso

eb|------|------|-------|
Bb|------|------|-------|
Gb|------|------|-------|
Db|-2-2--|-4--4-|-3-----|
Ab|-2-2--|-4--4-|-3-----|
Db|-2-2--|-2--2-|-3-----|

i remember what they taught to me
remember condescending talk of who i ought to be
remember listening to all of that and this again
so i pretended up a person who was fitting in
and now you think this person really is me and i'm
(trying to bend the truth)
but the more i push 
the more i'm pulling away 
'cause i'm 

lying my way from you

refrão

interlúdio

Eb|---------|-----------------------|---------------
Bb|---------|-----------------------|---------------
Gb|---------|-----------------------|---------------
Db|2-2-1-1-0-1-2-1-0-2-6~-----------|---------------
Ab|2-2-1-1-0-1-2-1-0-2-6~-----------|---------------
eb|2-2-1-1-0-1-2-1-0-2-6~-----------|---------------

this isn't what i wanted to be
i never thought that what i said 
would have you running from me
like this 

Eb|----------------------------------|-------------
Bb|----------------------------------|-------------
Gb|------11-11-11-117-7-7-7/9-9-9-9-|-------------
Db|-2-2--X--X--X--X-X-X-X-X/X-X-X-X-|5-5-5 4-4-4--
Ab|-2-2--9--9-9-9-9-5-5-5-5/7-7-7-7-|5-5-5-5-5-5--
Db|-0-0------------------------------|3-3-3-5-5-5--


Eb|----------------------------------|-------------
Bb|----------------------------------|-------------
Gb|------11-11-11-117-7-7-7/9-9-9-9-|-------------
Db|-2-2--X--X--X--X-X-X-X-X/X-X-X-X-|7-7-7-4-4-4--
Ab|-3-3--9--9-9-9-9-5-5-5-5/7-7-7-7-|7-7-7-5-5-5--
Db|-3-3------------------------------|5-5-5-5-5-5--

(no / no turning back now)
i wanna be pushed aside 
so let me go
(no / no turning back now)
let me take back my life 
i'd rather be all alone
(no turning back now)
anywhere on my own
cause i can see
(no / no turning back now)
the very worst part of you 
is me 

tirado por:william reis de souza
lembre-se da afinação:eb

_______________________________________________________
Contribuição: william guitar noob([email protected])
    	
fixar
fixar inscrever-se

enviado porenviado por: anônimo
cifra enviadaCorrigida por: sem correções
logo top cifrasComente
ico música do artistaMúsicas deste artista
ico curtiuCurtiu?
ico destaqueDestaque
Petaxxon Comunicação Online

Cifras.com.br - Melhor e mais completo site de cifras e tablaturas do Brasil Mais de 1 milhão de acordes de músicas cadastradas desde 2003
As informações contidas no nosso site são colaborações de seus usuários e podem conter erros, sendo assim, não nos responsabilizamos sobre nenhuma destas.

close
menos
mais
close
Cor dos acordes:

Cor da letra:

close
Alinhar acordes a direita Alinhar acordes a esquerda Alinhar acordes em baixo Alinhar acordes no topo
close
  Mostrar todos os acordes Esconder acordes muito fáceis Esconder acordes fáceis Esconder acordes intermediários
redimensionar
glossário