Cifras e Tablaturas
Linkin Park

Linkin Park

Wastelands

Cifras Cancelar Versão de Impressão

Linkin Park - Wastelands

Tom:

  			

Intro:(x3) 
e|--5-xxx-5-xx-55-xx-5-6-5------------------------------------------------------------------| 
B|--5-xxx-5-xx-55-xx-5-6-5------------------------------------------------------------------| 
G|--7-xxx-7-xx-77-xx-7-8-7------------------------------------------------------------------| 
D|--7-xxx-7-xx-77-xx-7-8-7------------------------------------------------------------------| 
A|--5-xxx-5-xx-55-xx-5-6-5------------------------------------------------------------------| 
E|--5-xxx-5-xx-55-xx-5-6-5------------------------------------------------------------------| 

e|--5555-6-5-5555-8--6-5--| 
B|--5555-6-5-5555-8--6-5--| 
G|--7777-8-7-7777-10-8-7--| 
D|--7777-8-7-7777-10-8-7--| 
A|--5555-6-5-5555-8--6-5--| 
E|--5555-6-5-5555-8--6-5--| 

Verse:(x4) 
e|--5555-8--6-5---------------------------------------------------------------------| 
B|--5555-8--6-5---------------------------------------------------------------------| 
G|--7777-10-8-7---------------------------------------------------------------------| 
D|--7777-10-8-7---------------------------------------------------------------------| 
A|--5555-8--6-5---------------------------------------------------------------------| 
E|--5555-8--6-5---------------------------------------------------------------------| 

Chorus:(x2) 
e|--5-5-8--3------------------------------------------------------------------------| 
B|--4-5-8--3------------------------------------------------------------------------| 
G|--7-5-8--3------------------------------------------------------------------------| 
D|--7-7-10-5------------------------------------------------------------------------| 
A|--5-7-10-5------------------------------------------------------------------------| 
E|--5-5-8--3------------------------------------------------------------------------| 

Bridge:(x4) 
e|---------------------------------------------------------------------------------| 
B|---------------------------------------------------------------------------------| 
G|---------------------------------------------------------------------------------| 
D|--2-3-5-3------------------------------------------------------------------------| 
A|--2-3-5-3------------------------------------------------------------------------| 
E|----1-3-1------------------------------------------------------------------------| 


************************************ 

| /   slide up 
| \   slide down 
| h   hammer-on 
| p   pull-off 
| ~   vibrato 
| +   harmonic 
| x   Mute note 
| b   Bend 
| pb  Pre-bend 
| br  Bend release 
| pbr Pre-bend release 
| brb Bend release bend 

************************************ 
    	
fixar
fixar inscrever-se

enviado porenviado por: jov-correa
cifra enviadaCorrigida por: sem correções
logo top cifrasComente
ico música do artistaMúsicas deste artista
ico curtiuCurtiu?
ico destaqueDestaque
Petaxxon Comunicação Online

Cifras.com.br - Melhor e mais completo site de cifras e tablaturas do Brasil Mais de 1 milhão de acordes de músicas cadastradas desde 2003
As informações contidas no nosso site são colaborações de seus usuários e podem conter erros, sendo assim, não nos responsabilizamos sobre nenhuma destas.

close
menos
mais
close
Cor dos acordes:

Cor da letra:

close
Alinhar acordes a direita Alinhar acordes a esquerda Alinhar acordes em baixo Alinhar acordes no topo
close
  Mostrar todos os acordes Esconder acordes muito fáceis Esconder acordes fáceis Esconder acordes intermediários
redimensionar
glossário