Cifras e Tablaturas
Lite

Lite

Duck Follows An Eccentric

Cifras Cancelar Versão de Impressão

Lite - Duck Follows An Eccentric

Tom:

  			14/8 Time signature 
189 BPM 

Intro 

1st Guitar 

e|---------9--8---------------|---------9--8--------8-13-| 
B|-------9------------9-------|-------9-------9-11-------| 
G|-10--8----------10----11-10-|-10--8--------------------| 
D|----------------------------|--------------------------| 
A|----------------------------|--------------------------| 
E|----------------------------|--------------------------| 

2nd Guitar 

e|-------------------------|-------------------------| 
B|-------------------------|-------------------------| 
G|--------6--5-------------|--------6--5-------5--10-| 
D|------6-----------6------|------6-------6-8--------| 
A|-8--6----------8----9-8--|-8--6--------------------| 
E|-------------------------|-------------------------| 

3rd Guitar 

e|----13-----11-----9---8---|-----4--2--1--| 
B|-14----13------11---9---6-|-6------------| 
G|--------------------------|--------------| 
D|--------------------------|--------------| 
A|--------------------------|--------------| 
E|--------------------------|--------------| 
    	
fixar
fixar inscrever-se

enviado porenviado por: joaoewerton
cifra enviadaCorrigida por: sem correções
logo top cifrasComente
ico música do artistaMúsicas deste artista
ico curtiuCurtiu?
ico destaqueDestaque
Petaxxon Comunicação Online

Cifras.com.br - Melhor e mais completo site de cifras e tablaturas do Brasil Mais de 1 milhão de acordes de músicas cadastradas desde 2003
As informações contidas no nosso site são colaborações de seus usuários e podem conter erros, sendo assim, não nos responsabilizamos sobre nenhuma destas.

close
menos
mais
close
Cor dos acordes:

Cor da letra:

close
Alinhar acordes a direita Alinhar acordes a esquerda Alinhar acordes em baixo Alinhar acordes no topo
close
  Mostrar todos os acordes Esconder acordes muito fáceis Esconder acordes fáceis Esconder acordes intermediários
redimensionar
glossário