Cifras e Tablaturas
Little Richard

Little Richard

Good Golly Miss Molly

Ano: 1991
Album : The Georgia Peach

Cifras Cancelar Versão de Impressão
cifras

Little Richard - Good Golly Miss Molly

fixar na tela  
Exibindo: vídeo-aula ver clipes redimensionar
  
 Intro 
  Q=164(8=s8) 
             G 
 4/4 
  Gtr I (Clean El. Gtr.) 
  W          E E E E E E E E   E E E E E E E E   E E E E E E E E 
|----------|-----------------|-----------------|-----------------| 
|----------|-----------------|-----------------|-----------------| 
|----------|-----------------|-----------------|-----------------| 
|----------|---------0-0-2-0-|---------0-0-2-0-|---------0-0-2-0-| 
|----------|-----2-2---------|-----2-2---------|-----2-2---------| 
|----------|-3-3-------------|-3-3-------------|-3-3-------------| 


                    C                                   G 
  E E E E E E E E   E E E E E E E E   E E E E E E E E   E E E E E E E E 
|-----------------|-----------------|-----------------|-----------------| 
|-----------------|-----------------|-----------------|-----------------| 
|-----------------|---------0-0-2-0-|---------0-0-2-0-|-----------------| 
|---------0-0-2-0-|-----2-2---------|-----2-2---------|---------0-0-2-0-| 
|-----2-2---------|-3-3-------------|-3-3-------------|-----2-2---------| 
|-3-3-------------|-----------------|-----------------|-3-3-------------| 


                    D                 C                 G 
  E E E E E E E E   E E E E E E E E   E E E E E E E E   E E E E E E E E 
|-----------------|-----------------|-----------------|-----------------|| 
|-----------------|-----------------|-----------------|-----------------|| 
|-----------------|---------2-2-4-2-|---------0-0-2-0-|-----------------|| 
|---------0-0-2-0-|-0-0-4-4---------|-----2-2---------|---------0-0-2-0-|| 
|-----2-2---------|-----------------|-3-3-------------|-----2-2---------|| 
|-3-3-------------|-----------------|-----------------|-3-3-------------|| 


 Chorus 
                G 
  e E Q  H      E E E E E E E E   E E E E E E E E   E E E E E E E E 
|-------------|-----------------|-----------------|-----------------| 
|-------------|-----------------|-----------------|-----------------| 
|-------------|-----------------|-----------------|-----------------| 
|-------------|---------0-0-2-0-|---------0-0-2-0-|---------0-0-2-0-| 
|-------------|-----2-2---------|-----2-2---------|-----2-2---------| 
|-3-----------|-3-3-------------|-3-3-------------|-3-3-------------| 


                    C                                   G 
  E E E E E E E E   E E E E E E E E   E E E E E E E E   E E E E E E E E 
|-----------------|-----------------|-----------------|-----------------| 
|-----------------|-----------------|-----------------|-----------------| 
|-----------------|---------0-0-2-0-|---------0-0-2-0-|-----------------| 
|---------0-0-2-0-|-----2-2---------|-----2-2---------|---------0-0-2-0-| 
|-----2-2---------|-3-3-------------|-3-3-------------|-----2-2---------| 
|-3-3-------------|-----------------|-----------------|-3-3-------------| 


                    D                 C                 G 
  E E E E E E E E   E E E E E E E E   E E E E E E E E   E E E E E E E E 
|-----------------|-----------------|-----------------|-----------------| 
|-----------------|-----------------|-----------------|-----------------| 
|-----------------|---------2-2-4-2-|---------0-0-2-0-|-----------------| 
|---------0-0-2-0-|-0-0-4-4---------|-----2-2---------|---------0-0-2-0-| 
|-----2-2---------|-----------------|-3-3-------------|-----2-2---------| 
|-3-3-------------|-----------------|-----------------|-3-3-------------| 


                     1st & 2nd Verses 
                      G                                      N.C. 
                                                            3/4 
  E E E E E E E E     q  Q  H      q  Q  H      q  Q  H      W 
|-----------------||-------------|------------|------------|------|| 
|-----------------||o------------|------------|------------|------|| 
|-----------------||--0----------|-0----------|-0----------|------|| 
|---------0-0-2-0-||-------------|------------|------------|------|| 
|-----2-2---------||o------------|------------|------------|------|| 
|-3-3-------------||-------------|------------|------------|------|| 


 Chorus 
  N.C.       C                                   G 
 4/4 
  W          E E E E E E E E   E E E E E E E E   E E E E E E E E 
|----------|-----------------|-----------------|-----------------| 
|----------|-----------------|-----------------|-----------------| 
|----------|---------0-0-2-0-|---------0-0-2-0-|-----------------| 
|----------|-----2-2---------|-----2-2---------|---------0-0-2-0-| 
|----------|-3-3-------------|-3-3-------------|-----2-2---------| 
|----------|-----------------|-----------------|-3-3-------------| 


                    D                 C                 G 
  E E E E E E E E   E E E E E E E E   E E E E E E E E   E E E E E E E E 
|-----------------|-----------------|-----------------|-----------------| 
|-----------------|-----------------|-----------------|-----------------| 
|-----------------|---------2-2-4-2-|---------0-0-2-0-|-----------------| 
|---------0-0-2-0-|-0-0-4-4---------|-----2-2---------|---------0-0-2-0-| 
|-----2-2---------|-----------------|-3-3-------------|-----2-2---------| 
|-3-3-------------|-----------------|-----------------|-3-3-------------| 


                     Saxophone Solo 
                      G 
  E E E E E E E E     E E E E E E E E   E E E E E E E E   E E E E E E E E 
|------------------||-----------------|-----------------|-----------------| 
|-----------------o||-----------------|-----------------|-----------------| 
|------------------||-----------------|-----------------|-----------------| 
|---------0-0-2-0--||---------0-0-2-0-|---------0-0-2-0-|---------0-0-2-0-| 
|-----2-2---------o||-----2-2---------|-----2-2---------|-----2-2---------| 
|-3-3--------------||-3-3-------------|-3-3-------------|-3-3-------------| 


                    C                                   G 
  E E E E E E E E   E E E E E E E E   E E E E E E E E   E E E E E E E E 
|-----------------|-----------------|-----------------|-----------------| 
|-----------------|-----------------|-----------------|-----------------| 
|-----------------|---------0-0-2-0-|---------0-0-2-0-|-----------------| 
|---------0-0-2-0-|-----2-2---------|-----2-2---------|---------0-0-2-0-| 
|-----2-2---------|-3-3-------------|-3-3-------------|-----2-2---------| 
|-3-3-------------|-----------------|-----------------|-3-3-------------| 


                    D                 C                 G 
  E E E E E E E E   E E E E E E E E   E E E E E E E E   E E E E E E E E 
|-----------------|-----------------|-----------------|-----------------|| 
|-----------------|-----------------|-----------------|-----------------|| 
|-----------------|---------2-2-4-2-|---------0-0-2-0-|-----------------|| 
|---------0-0-2-0-|-0-0-4-4---------|-----2-2---------|---------0-0-2-0-|| 
|-----2-2---------|-----------------|-3-3-------------|-----2-2---------|| 
|-3-3-------------|-----------------|-----------------|-3-3-------------|| 


 Chorus 
                G 
  e E Q  H      E E E E E E E E   E E E E E E E E   E E E E E E E E 
|-------------|-----------------|-----------------|-----------------| 
|-------------|-----------------|-----------------|-----------------| 
|-------------|-----------------|-----------------|-----------------| 
|-------------|---------0-0-2-0-|---------0-0-2-0-|---------0-0-2-0-| 
|-------------|-----2-2---------|-----2-2---------|-----2-2---------| 
|-3-----------|-3-3-------------|-3-3-------------|-3-3-------------| 


                    C                                   G 
  E E E E E E E E   E E E E E E E E   E E E E E E E E   E E E E E E E E 
|-----------------|-----------------|-----------------|-----------------| 
|-----------------|-----------------|-----------------|-----------------| 
|-----------------|---------0-0-2-0-|---------0-0-2-0-|-----------------| 
|---------0-0-2-0-|-----2-2---------|-----2-2---------|---------0-0-2-0-| 
|-----2-2---------|-3-3-------------|-3-3-------------|-----2-2---------| 
|-3-3-------------|-----------------|-----------------|-3-3-------------| 


                    D                 C                 G 
  E E E E E E E E   E E E E E E E E   E E E E E E E E   E E E E E E E E 
|-----------------|-----------------|-----------------|-----------------| 
|-----------------|-----------------|-----------------|-----------------| 
|-----------------|---------2-2-4-2-|---------0-0-2-0-|-----------------| 
|---------0-0-2-0-|-0-0-4-4---------|-----2-2---------|---------0-0-2-0-| 
|-----2-2---------|-----------------|-3-3-------------|-----2-2---------| 
|-3-3-------------|-----------------|-----------------|-3-3-------------| 


                    3rd Verse 
                     G                                      N.C. 
                                                           3/4 
  E E E E E E E E    q  Q  H      q  Q  H      q  Q  H      W 
|-----------------||------------|------------|------------|------|| 
|-----------------||------------|------------|------------|------|| 
|-----------------||-0----------|-0----------|-0----------|------|| 
|---------0-0-2-0-||------------|------------|------------|------|| 
|-----2-2---------||------------|------------|------------|------|| 
|-3-3-------------||------------|------------|------------|------|| 


 Chorus 
  N.C.       C                                   G 
 4/4 
  W          E E E E E E E E   E E E E E E E E   E E E E E E E E 
|----------|-----------------|-----------------|-----------------| 
|----------|-----------------|-----------------|-----------------| 
|----------|---------0-0-2-0-|---------0-0-2-0-|-----------------| 
|----------|-----2-2---------|-----2-2---------|---------0-0-2-0-| 
|----------|-3-3-------------|-3-3-------------|-----2-2---------| 
|----------|-----------------|-----------------|-3-3-------------| 


                    D                 C 
  E E E E E E E E   E E E E E E E E   q  Q  H 
|-----------------|-----------------|------------|| 
|-----------------|-----------------|------------|| 
|-----------------|---------2-2-4-2-|------------|| 
|---------0-0-2-0-|-0-0-4-4---------|------------|| 
|-----2-2---------|-----------------|-3----------|| 
|-3-3-------------|-----------------|------------|| 


 Outro 
  W          Q  E E +H       +W 
|----------|---------------|--------*| 
|----------|---------------|--------*| 
|----------|---------------|--------*| 
|----------|------0-(0)----|-(0)----*| 
|----------|----3----------|--------*| 
|----------|---------------|--------*| 


 
  

cifra enviadasem correções
enviado porenviada por:ubirbomfim
top 5 | little richard
top rock clássico
Outras músicas do artista letras do(a) Little Richard
Top cifras »Top artistas »
Petaxxon Comunicação Online
Cifras.com.br - Melhor e mais completo site de cifras e tablaturas do Brasil
Mais de 1 milhão de acordes de músicas cadastradas desde 2003
As informações contidas no nosso site são colaborações de seus usuários e podem conter erros, sendo assim, não nos responsabilizamos sobre nenhuma destas.
close
menos
mais
close
Cor dos acordes:

Cor da letra:

 

save
close
close
 
redimensionar