Cifras e Tablaturas
Lizz Wright

Lizz Wright

Speak Your Heart

Cifras Cancelar Versão de Impressão
cifras

Lizz Wright - Speak Your Heart

fixar na tela  
Exibindo: vídeo-aula ver clipes redimensionar

Tom:

  
      Q    O  O  O  O  Q       Q    O  O  O  O  Q       Q    O  O  O  O  Q      
E|-------------------------|------------------------|------------------------| 
B|---5-------------5-------|--5-------------5-------|--4-------------4-------|   
G|-----------6-------------|----------6-------------|----------4-------------|   
D|--------6-----------6----|-------6-----------6----|-------6-----------6----|   
A|---4----------4----------|--4----------4----------|------------------------|   
E|-------------------------|------------------------|--0----------0----------|   
   
     Q    O  O  O  O  Q       Q    O  O  O  O  Q       Q    O  O  O  O  Q      
E|------------------------|----------------4-------|----------------0-------|  
B|--4-------------4-------|--5---------------------|--5---------------------|  
G|----------4-------------|----------6-------------|----------6-------------|  
D|-------6-----------6----|-------6-----------6----|-------6-----------6----|  
A|------------------------|--0----------0----------|--0----------0----------|  
E|--0----------0----------|------------------------|------------------------|  

     Q    O  O  O  O  Q       Q    O  O  O  O  Q        
E|----------------4-------|----------------0--------| 
B|--5---------------------|--5----------------------|  
G|----------6-------------|----------6--------------|  
D|-------6-----------6----|-------6-----------6-----|  
A|--0----------0----------|--0----------0-----------|  
E|------------------------|-------------------------| 
  

top 5 | lizz wright
top blues
Outras músicas do artista letras do(a) Lizz Wright
Top cifras »Top artistas »
Petaxxon Comunicação Online
Cifras.com.br - Melhor e mais completo site de cifras e tablaturas do Brasil
Mais de 1 milhão de acordes de músicas cadastradas desde 2003
As informações contidas no nosso site são colaborações de seus usuários e podem conter erros, sendo assim, não nos responsabilizamos sobre nenhuma destas.
close
menos
mais
close
Cor dos acordes:

Cor da letra:

 

save
close
close
 
redimensionar