Cifras e Tablaturas
Los Fastidios

Los Fastidios

La Staffetta

Cifras Cancelar Versão de Impressão
cifras

Los Fastidios - La Staffetta

fixar na tela  
Exibindo: vídeo-aula ver clipes redimensionar
  
Intro 

     D5  B5  C5  A5 
  e|-----------------: 
  B|-----------------: 
  G|-----------------: 
  D|-12--9---10--7---: 
  A|-12--9---10--7---: 
  E|-10--7---8---5---: 


     G5              D5                E5              C5 
  e|---------------------------------|---------------------------------| 
  B|---------------------------------|---------------------------------| 
  G|-----------------7---7-7---7-7---|-9---9-9---9-9---5---5-5---5-5---| 
  D|-5---5-5---5-5---7---7-7---7-7---|-9---9-9---9-9---5---5-5---5-5---| 
  A|-5---5-5---5-5---5---5-5---5-5---|-7---7-7---7-7---3---3-3---3-3---| 
  E|-3---3-3---3-3-------------------|---------------------------------| 


     G5              D5                C5 (hold) 
  e|---------------------------------|---------------------------------| 
  B|---------------------------------|---------------------------------| 
  G|-----------------7---7-7---7-7---|-5-------------------------------| 
  D|-5---5-5---5-5---7---7-7---7-7---|-5-------------------------------| 
  A|-5---5-5---5-5---5---5-5---5-5---|-3-------------------------------| 
  E|-3---3-3---3-3-------------------|---------------------------------| 



verse 1 

     G5  G5(pm)      D5(pm)            E5(pm)          C5(pm) 
  e|---------------------------------|---------------------------------| 
  B|---------------------------------|---------------------------------| 
  G|---------------------------------|---------------------------------| 
  D|-5---------------7-7-7-7-7-7-7-7-|-9-9-9-9-9-9-9-9-5-5-5-5-5-5-5-5-| 
  A|-5---5-5-5-5-5-5-5-5-5-5-5-5-5-5-|-7-7-7-7-7-7-7-7-3-3-3-3-3-3-3-3-| 
  E|-3---3-3-3-3-3-3-----------------|---------------------------------| 
 pm:     ' ' ' ' ' ' ' ' ' ' ' ' ' '   ' ' ' ' ' ' ' ' ' ' ' ' ' ' ' '  
     Dalla montagna scende la luce arrivano le voce de compagni 


     G5(pm)          D5(pm)            E5(pm)          C5(pm) 
  e|---------------------------------|---------------------------------| 
  B|---------------------------------|---------------------------------| 
  G|---------------------------------|---------------------------------| 
  D|-----------------7-7-7-7-7-7-7-7-|-9-9-9-9-9-9-9-9-5-5-5-5-5-5-5-5-| 
  A|-5-5-5-5-5-5-5-5-5-5-5-5-5-5-5-5-|-7-7-7-7-7-7-7-7-3-3-3-3-3-3-3-3-| 
  E|-3-3-3-3-3-3-3-3-----------------|---------------------------------| 
 pm: ' ' ' ' ' ' ' ' ' ' ' ' ' ' ' '   ' ' ' ' ' ' ' ' ' ' ' ' ' ' ' '  
     Voci di resistenza popolare de chi ha lasciato tutto per un ideale 


     G5              D5                E5              C5 
  e|---------------------------------|---------------------------------| 
  B|---------------------------------|---------------------------------| 
  G|---------------------7-------7---|-----9-------9-------5-------5---| 
  D|-----5-------5-------7-------7---|-----9-------9-------5-------5---| 
  A|-----5-------5---5-5-5---5-5-5---|-7-7-7---7-7-7---3-3-3---3-3-3---| 
  E|-3-3-3---3-3-3-------------------|---------------------------------| 
 pm: ' '     ' '     ' '     ' '       ' '     ' '     ' '     ' ' 
  La giovane staffetta parte dal paese sale in bici la strada fino al bosco 


     G5(pm)          D5(pm)            E5(pm)          C (hold) 
  e|---------------------------------|---------------------------------| R 
  B|---------------------------------|-----------------5---------------| H 
  G|---------------------------------|-----------------5---------------| Y 
  D|-----------------7-7-7-7-7-7-7-7-|-9-9-9-9-9-9-9-9-5---------------| T 
  A|-5-5-5-5-5-5-5-5-5-5-5-5-5-5-5-5-|-7-7-7-7-7-7-7-7-3---------------| H 
  E|-3-3-3-3-3-3-3-3-----------------|---------------------------------| M 
 pm: ' ' ' ' ' ' ' ' ' ' ' ' ' ' ' '   ' ' ' ' ' ' ' ' 

  e|-3-3-3-3-3-3-3-3-2-2-2-2-2-2-2-2-|-----------------0---0---0---0---|  
  B|-3-3-3-3-3-3-3-3-3-3-3-3-3-3-3-3-|-0-0-0-0-0-0-0-0-1---1---1---1---| L 
  G|-0-0-0-0-0-0-0-0-2-2-2-2-2-2-2-2-|-1-1-1-1-1-1-1-1-0---0---0---0---| E 
  D|---------------------------------|-2-2-2-2-2-2-2-2-----------------| A 
  A|---------------------------------|---------------------------------| D 
  E|---------------------------------|---------------------------------| 
     Strade segrete per passare indenni del nimico  -  l'avanposto 


                     C (hold) 
  e|---------------------------------|-----------------: R 
  B|-----------------5---------------|-----------------: H 
  G|-----------------5---------------|-----------------: Y 
  D|-----------------5---------------|-----------------: T 
  A|-----------------3---------------|-> pick scrape >-: H 
  E|---------------------------------|-----------------: M 

  e|-0---0---0---0---0---0---0---0---|-0---0---0---0---: 
  B|-1---1---1---1---1---1---1---1---|-1---1---1---1---: L 
  G|-0---0---0---0---0---0---0---0---|-0---0---0---0---: E 
  D|---------------------------------|-----------------: A 
  A|---------------------------------|-----------------: D 
  E|---------------------------------|-----------------: 
                     L'avanposto                   Wo- 


Chorus 

     G5              D5                E5              C5 
  e|---------------------------------|---------------------------------| 
  B|---------------------------------|---------------------------------| 
  G|-----------------7---7-7-7-7-7-7-|-9---9-9-9-9-9-9-5---5-5-5-5-5-5-| 
  D|-5---5-5-5-5-5-5-7---7-7-7-7-7-7-|-9---9-9-9-9-9-9-5---5-5-5-5-5-5-| 
  A|-5---5-5-5-5-5-5-5---5-5-5-5-5-5-|-7---7-7-7-7-7-7-3---3-3-3-3-3-3-| 
  E|-3---3-3-3-3-3-3-----------------|---------------------------------| 
    -Oh  -   oh  -   oh  -   oh    -   oh  -   oh  -   oh          Wo- 


     G5              D5                C5              D5(pm) 
  e|---------------------------------|---------------------------------| 
  B|---------------------------------|---------------------------------| 
  G|-----------------7---7-7-7-7-7-7-|-5---5-5-5-5-5-5-----------------| 
  D|-5---5-5-5-5-5-5-7---7-7-7-7-7-7-|-5---5-5-5-5-5-5-7-7-7-7-7-7-7-7-| 
  A|-5---5-5-5-5-5-5-5---5-5-5-5-5-5-|-3---3-3-3-3-3-3-5-5-5-5-5-5-5-5-| 
  E|-3---3-3-3-3-3-3-----------------|---------------------------------| 
 pm:                                                   ' ' ' ' ' ' ' '  
    -Oh  -   oh  -   oh  -   oh    -   oh -oh-oh - oh-oh           Wo- 


     G5              D5                E5              C5 
  e|---------------------------------|---------------------------------| 
  B|---------------------------------|---------------------------------| 
  G|-----------------7---7-7-7-7-7-7-|-9---9-9-9-9-9-9-5---5-5-5-5-5-5-| 
  D|-5---5-5-5-5-5-5-7---7-7-7-7-7-7-|-9---9-9-9-9-9-9-5---5-5-5-5-5-5-| 
  A|-5---5-5-5-5-5-5-5---5-5-5-5-5-5-|-7---7-7-7-7-7-7-3---3-3-3-3-3-3-| 
  E|-3---3-3-3-3-3-3-----------------|---------------------------------| 
    -Oh  -   oh  -   oh  -   oh    -   oh  -   oh  -   oh          Wo- 


     G5              D5                C5              D5 
  e|---------------------------------|---------------------------------| 
  B|---------------------------------|---------------------------------| 
  G|-----------------7---7-7-7-7-7-7-|-5---5-5-5-5-5-5-7---7-7-7-7-7-7-| 
  D|-5---5-5-5-5-5-5-7---7-7-7-7-7-7-|-5---5-5-5-5-5-5-7---7-7-7-7-7-7-| 
  A|-5---5-5-5-5-5-5-5---5-5-5-5-5-5-|-3---3-3-3-3-3-3-5---5-5-5-5-5-5-| 
  E|-3---3-3-3-3-3-3-----------------|---------------------------------| 
    -Oh  -   oh  -   oh  -   oh    -   oh -oh-oh -oh-oh 



verse 2 

  G5(pm)            D5(pm)        E5(pm)       C5(pm) 
  Viveri, notize ed un sorriso lo stesso sogno condiviso 

       G5(pm)               D5(pm)                   E5(pm)     C5(pm) 
  Lei, angelo de popolo, un nome di battaglia che nessuno mai infangare potrà 

            G5            D5               E5              C5 
  In quegli occhi veri dolcezza e orgoglio - si fondono in un sorriso 

   G5(pm)                  D5(pm)               E5(pm) 
  Una parola, una battuta, una sigaretta, prima di riprender strasa 

     C (hold) 
  Sulla bicicletta 

     C (hold)     pick scrape 
  Sulla bicicletta 


Repeat Chorus (Wo-oh-oh-oh ...) 



Solo 

     G5(pm)          D5(pm)            E5(pm)          C5(pm) 
  e|---------------------------------|---------------------------------| R 
  B|---------------------------------|---------------------------------| I 
  G|-----7-7-7-5-4-------------------|-4-4-4-4-4-----4-4---------------| G L 
  D|---------------7-------------5-7-|-----------7-------5-------------| H E 
  A|---------------------------------|---------------------------------| T A 
  E|---------------------------------|---------------------------------|   D 

  e|---------------------------------|---------------------------------| L 
  B|---------------------------------|---------------------------------| E 
  G|---------------------7-7-7-----7-|-9-----------------7-------------| F L 
  D|---------------------------10----|---9-------7---9-10---10-9-10--9-| T E 
  A|---------------------------------|---------------------------------|   A 
  E|---------------------------------|---------------------------------|   D 


     G5(pm)          D5(pm)            C5(pm)          D5(pm) 
  e|---------------------------------|---------------------------------| R 
  B|---------------------------------|-5-----------5-------------------| I 
  G|-----7-7-7-5-4---------------5-7-|-----7-5---7---7-----------------| G L 
  D|---------------7-----------------|---------------------------------| H E 
  A|---------------------------------|---------------------------------| T A 
  E|---------------------------------|---------------------------------|   D 

  e|---------------------------------|---------------------------------| L 
  B|---------------------------------|---------------7---8---7----7----| E 
  G|---------------------7-7-7-9---7-|-9---7-----7-9-----------9-----9-| F L 
  D|---------------------------------|-------10------------------------| T E 
  A|-10------------------------------|---------------------------------|   A 
  E|---------------------------------|---------------------------------|   D 


     G5(pm)          D5(pm)            E5(pm)          C5(pm) 
  e|---------------------------------|---------------------------------| R 
  B|---------------------------------|---------------------------------| I 
  G|-----7-7-7-7-5-4-----------------|-4-4-4-4-4-----4-4---------------| G L 
  D|-----------------7-----------5-7-|-----------7-------5-------------| H E 
  A|---------------------------------|---------------------------------| T A 
  E|---------------------------------|---------------------------------|   D 

  e|---------------------------------|---------------------------------| L 
  B|---------------------------------|---------------------------------| E 
  G|-7-------------------7-7-7-----7-|-9-----------------7-------------| F L 
  D|---------------------------10----|---9-------7---9-10---10-9-10--9-| T E 
  A|---------------------------------|---------------------------------|   A 
  E|---------------------------------|---------------------------------|   D 


     G5(pm)          D5(pm)            C5              D5 
  e|---------------------------------|---------------------------------| R 
  B|---------------------------------|-5-----------5-------------------| I 
  G|-----7-7-7-5---4-------------5-7-|-----7-5---7---7-(hold)----------| G L 
  D|-----------------7---------------|---------------------------------| H E 
  A|---------------------------------|---------------------------------| T A 
  E|---------------------------------|---------------------------------|   D 

  e|---------------------------------|---------------------------------| L 
  B|---------------------------------|-8-----7---------------------7---| E 
  G|---------------------7-7-7-9---7-|-------------9---7-----9---------| F L 
  D|---------------------------------|---------------------------------| T E 
  A|-10------------------------------|---------------------------------|   A 
  E|---------------------------------|---------------------------------|   D 


                       e|----------- 
    LEFT LEAD ends on: B|-8-(hold)-- 
                       G|----------- 


verse 3 

  G5(pm)                D5(pm)    E5(pm)                C5(pm) 
  Senti gli spari giù a valle - i colpi del plutone d'esecuzione 

   G5(pm)              D5(pm)            E5(pm)        C5(pm) 
  Una sorella fucilata - senza pietà, un'altra martire della libertà 

        G5                D5     E5                     C5 
  Quell'esile corpo crivellato esposto in piazza come avvertimento 

     G5(pm)          D5(pm)                  E5(pm)     C (hold) 
  Un altro angelo in cielo è volato un altre angelo - sarà vendicato 

    C (hold)    pick scrape 
  Sarà vendicato 


Repeat Chorus  (Wo-oh-oh-oh ...) 



verse 4 

     G5              D5                E5              C5 G5   C5 G5  
  e|---------------------------------|---------------------------------| 
  B|---------------------------------|---------------------------------| 
  G|-----------------7---------------|-9---------------5-------5-------| 
  D|-5---------------7---------------|-9---------------5-5-----5-5-----| 
  A|-5---------------5---------------|-7---------------3-5-----3-5-----| 
  E|-3-------------------------------|-------------------3-------3-----| 
  La giovane staffetta riparte dal paese sale in bici la strada fino al bosco 


     G5              D5                E5 (hold) 
  e|---------------------------------|---------------------------------| 
  B|---------------------------------|---------------------------------| 
  G|-----------------7---------------|-9-------------------------------| 
  D|-5---------------7---------------|-9-------------------------------| 
  A|-5---------------5---------------|-7-------------------------------| 
  E|-3-------------------------------|---------------------------------| 
     Della brigata - forza e speranza - ora e per sempre (Resistenza!) 


     G5              D5                E5              C5 
  e|---------------------------------|---------------------------------| 
  B|---------------------------------|---------------------------------| 
  G|-----------------7-7-7-7-7-7-7-7-|-9-9-9-9-9-9-9-9-5-5-5-5-5-5-5-5-| 
  D|-5-5-5-5-5-5-5-5-7-7-7-7-7-7-7-7-|-9-9-9-9-9-9-9-9-5-5-5-5-5-5-5-5-| 
  A|-5-5-5-5-5-5-5-5-5-5-5-5-5-5-5-5-|-7-7-7-7-7-7-7-7-3-3-3-3-3-3-3-3-| 
  E|-3-3-3-3-3-3-3-3-----------------|---------------------------------| 
     Quanto tempo è ormai passato   -  la battaglia non è mai finita 


     G5              D5                E5              C5 
  e|---------------------------------|---------------------------------| 
  B|---------------------------------|---------------------------------| 
  G|-----------------7-7-7-7-7-7-7-7-|-9-9-9-9-9-9-9-9-5---5---5---5---| 
  D|-5-5-5-5-5-5-5-5-7-7-7-7-7-7-7-7-|-9-9-9-9-9-9-9-9-5---5---5---5---| 
  A|-5-5-5-5-5-5-5-5-5-5-5-5-5-5-5-5-|-7-7-7-7-7-7-7-7-3---3---3---3---| 
  E|-3-3-3-3-3-3-3-3-----------------|---------------------------------| 
     E nel tuo curore batte compagna ancora il richiamo della montagna 


     C5 
  e|---------------------------------|-----------------: 
  B|---------------------------------|-----------------: 
  G|-5---5---5---5---5---5---5---5---|-5---5---5---5---: 
  D|-5---5---5---5---5---5---5---5---|-5---5---5---5---: 
  A|-3---3---3---3---3---3---3---3---|-3---3---3---3---: 
  E|---------------------------------|-----------------: 
                     Della montagna                Wo- 


Repeat Chorus  (Wo-oh-oh-oh ...) 

Repeat first 12 measures of Chorus + SOLO (RIGHT LEAD)  (Wo-oh-oh-oh ...) 



ENDING: 

     G5              D5                C5 
  e|---------------------------------|---------------------------------| R 
  B|---------------------------------|---------------------------------| H 
  G|-----------------7---7-7-7-7-7-7-|-5---5---5---5---5---5---5---5---| Y 
  D|-5---5-5-5-5-5-5-7---7-7-7-7-7-7-|-5---5---5---5---5---5---5---5---| T 
  A|-5---5-5-5-5-5-5-5---5-5-5-5-5-5-|-3---3---3---3---3---3---3---3---| H 
  E|-3---3-3-3-3-3-3-----------------|---------------------------------| M 

  e|---------------------------------|---------------------------------| 
  B|---------------------------------|-5-------------------------------| L 
  G|-----7-7-7---5---4-----------5-7-|-----7-5-------------------------| E 
  D|-------------------7-------------|---------------------------------| A 
  A|---------------------------------|---------------------------------| D 
  E|---------------------------------|---------------------------------| 
  Wo-oh  -   oh  -   oh  -   oh    -   oh -oh-oh 


     C5              C5 B5  A5    B5   G5 
  e|---------------------------------|---------------------------------| R 
  B|---------------------------------|---------------------------------| H 
  G|-5---5---5---5-------------------|---------------------------------| Y 
  D|-5---5---5---5---10-9---7---7-9--|-5-------------------------------| T 
  A|-3---3---3---3---10-9---7---7-9--|-5-------------------------------| H 
  E|-----------------8--7---5---5-7--|-3-------------------------------| M 
 pm:                 '  '   '   ' 

  e|---------------------------------|---------------------------------|  
  B|---------------------------------|---------------------------------| L 
  G|-5----------------5-4---------4--|---------------------------------| E 
  D|------------------------7---7----|-5-------------------------------| A 
  A|---------------------------------|---------------------------------| D 
  E|---------------------------------|---------------------------------| 
 pm:                  ' '   '   ' ' 
     Wo-oh-oh   -     -     -     oh - oh 
  

cifra enviadasem correções
enviado porenviada por:VsWorld
top 5 | los fastidios
top rock'n roll
Outras músicas do artista letras do(a) Los Fastidios
Top cifras »Top artistas »
Petaxxon Comunicação Online
Cifras.com.br - Melhor e mais completo site de cifras e tablaturas do Brasil
Mais de 1 milhão de acordes de músicas cadastradas desde 2003
As informações contidas no nosso site são colaborações de seus usuários e podem conter erros, sendo assim, não nos responsabilizamos sobre nenhuma destas.
close
menos
mais
close
Cor dos acordes:

Cor da letra:

 

save
close
close
 
redimensionar