Cifras e Tablaturas
Lost Acapulco

Lost Acapulco

Mpm La Quebradora

Cifras Cancelar Versão de Impressão Print

Lost Acapulco - Mpm La Quebradora

Tom: D

  			------------------------------------------------------m 
------------------------------------------------------- 
------------------------------------------------------- 
-7vvvv—-7vvvv--7vvv------------------------------------ 
------------------------------------------------------- 
------------------------------------------------------- 
OJO: entre cada uno de estos  se toca una de la cuerdas 
que están en la barra de abajo: E , D o A.  
La neta soy muy huevon para poner todo en tab asi que  
escuchenle no sean huevones y acomodenlo. 

----9----9-11-12-11-9----9----------------------------- 
-10---10--------------10------------------------------- 
-----------------------------2-5-2-5-7-9-7-5-2-5------- 
------------------------------------------------------- 
------------------------------------------------------- 
------------------------------------------------------- 

*muchas veces 
------------------------------------------------------------m 
------------------------------------------------------------- 
------------------------------------------------------------- 
-7v-5-4-5-4-3-3-1-3—7v-5-4-5-4-3-3-1-3-13-5-7v*/12v*/14v----- 
------------------------------------------------------------- 
------------------------------------------------------------- 

estas son las cuerdas que se usan agarren el ritmo   
y escuchen donde van. 

 E D A 
-----------------------------------------------------m 
------------------------------------------------------ 
-9-7-------------------------------------------------- 
-9-7-7------------------------------------------------ 
-7-5-7------------------------------------------------ 
-----5------------------------------------------------
    	
fixar
fixar inscrever-se

enviado porenviado por: tercmoraes
cifra enviadaCorrigida por: sem correções
logo top cifrasComente
ico música do artistaMúsicas deste artista
ico curtiuCurtiu?
ico destaqueDestaque
Petaxxon Comunicação Online

Cifras.com.br - Melhor e mais completo site de cifras e tablaturas do Brasil Mais de 1 milhão de acordes de músicas cadastradas desde 2003
As informações contidas no nosso site são colaborações de seus usuários e podem conter erros, sendo assim, não nos responsabilizamos sobre nenhuma destas.

close
menos
mais
close
Cor dos acordes:

Cor da letra:

close
Alinhar acordes a direita Alinhar acordes a esquerda Alinhar acordes em baixo Alinhar acordes no topo
close
  Mostrar todos os acordes Esconder acordes muito fáceis Esconder acordes fáceis Esconder acordes intermediários
redimensionar
glossário