Cifras e Tablaturas
Lost Frequencies

Lost Frequencies

Here With You

Cifras Cancelar Versão de Impressão
cifras

Lost Frequencies - Here With You

fixar na tela  
Exibindo: vídeo-aula ver clipes redimensionar
  

Verse 
 guitar 1 
eb|---------|---------|---------|---------|---------|---------|---------|---------| 
Bb|---------|---------|---------|---------|---------|---------|---------|---------| 
Gb|---------|---------|---------|---------|---------|----2----|---------|----4----| 
Db|---------|---------|---5-----|----4----|---------|---------|---------|---------| 
Ab|---------|----2----|---------|---------|---------|---------|---------|---------| 
Eb|--0------|---------|---------|---------|----2----|---------|----3----|---------| 

eb|---------|---------|---------|---------|---------|---------|---------|---------| 
Bb|---------|---------|---------|---------|---------|---------|---------|---------| 
Gb|---------|---------|---5-----|---------|---------|----12---|----11---|-----9---| 
Db|---------|---------|---------|---------|---------|---------|---------|---------| 
Ab|---------|----7----|---------|---------|---------|----10---|----9----|-----7---| 
Eb|--5------|---------|---------|---------|----0----|---------|---------|---------| 

eb|---------|---------|---------|---------|---------|---------|---------|---------| 
Bb|---------|---------|---------|---------|---------|---------|---------|---------| 
Gb|---------|---------|---------|---------|---------|----2----|---------|----4----| 
Db|---------|---------|---5-----|----4----|---------|---------|---------|---------| 
Ab|---------|----2----|---------|---------|---------|---------|---------|---------| 
Eb|--0------|---------|---------|---------|----2----|---------|----3----|---------| 

                                                 guitar 2 
eb|---------|---------|---------|---------|---------|---------|---------|---------|---------|------| 
Bb|---------|---------|---------|---------|---------|---------|---------|---------|---------|------| 
Gb|---------|---------|---5-----|---------|---------|---------|---------|---------|---------|------| 
Db|---------|---------|---------|---------|---------|---------|----9----|----10---|----9----|------| 
Ab|---------|----7----|---------|---------|---------|----7----|---------|---------|---------|----10| 
Eb|--5------|---------|---------|---------|----0----|---------|---------|---------|---------|------| 

eb|---------|---------|---------|---------|---------|---------|---------|---------| 
Bb|---------|---------|---------|---------|---------|---------|---------|---------| 
Gb|---------|---------|---------|---------|---------|----2----|---------|----4----| 
Db|---------|---------|---5-----|----4----|---------|---------|---------|---------| 
Ab|---------|----2----|---------|---------|---------|---------|---------|---------| 
Eb|--0------|---------|---------|---------|----2----|---------|----3----|---------| 

 guitar 2 
eb|---------|---------|---------|---------|---------|---------| 
Bb|---------|---------|---------|---------|--------|----------| 
Gb|---------|---------|---------|---------|--------|----------| 
Db|---------|----9----|----10---|----9----|--------|----7-----| 
Ab|----7----|---------|---------|---------|----10--|----------| 
Eb|---------|---------|---------|---------|--------|----------| 

 guitar 1 
eb|---------|---------|---------|---------|---------|---------|---------|---------| 
Bb|---------|---------|---------|---------|---------|---------|---------|---------| 
Gb|---------|---------|---4-----|---------|---------|----11---|----10---|-----8---| 
Db|---------|---------|---------|---------|---------|---------|---------|---------| 
Ab|---------|----6----|---------|---------|---------|----9----|----8----|-----6---| 
Eb|--5------|---------|---------|---------|----0----|---------|---------|---------| 

 guitar 2 
eb|---------|---------|---------|---------|--------| 
Bb|---------|---------|---------|---------|--------| 
Gb|---------|---------|---------|---------|--------| 
Db|---------|----9----|----10---|----9----|--------| 
Ab|----7----|---------|---------|---------|----10--| 
Eb|---------|---------|---------|---------|--------| 

 guitar 1 
eb|---------|---------|---------|---------|---------|---------|---------| 
Bb|---------|---------|---------|---------|---------|---------|---------| 
Gb|---9-----|---------|---------|---------|---------|---------|---------| 
Db|---------|---------|---------|----5----|----7----|----3--4-|---------| 
Ab|---7-----|---------|----7----|---------|---------|---------|---------| 
Eb|---------|----0----|---------|---------|---------|---------|---------| 

 guitar 2 
eb|---------|---------|---------|---------|---------| 
Bb|---------|---------|---------|---------|---------| 
Gb|---------|---------|---------|---------|---------| 
Db|---------|----9----|----10---|----9----|---------| 
Ab|----7----|---------|---------|---------|----10---| 
Eb|---------|---------|---------|---------|---------| 

 guitar 1 
eb|---------| 
Bb|---------| 
Gb|---9-----| 
Db|---------| 
Ab|---7-----| 
Eb|---------| 

 guitar 1 
eb|---------|---------|---------|---------|---------| 
Bb|---------|---12----|----13---|---12----|---------| 
Gb|----9----|---------|---------|---------|---12----| 
Db|---------|---------|---------|---------|---------| 
Ab|---------|---------|---------|---------|---------| 
Eb|---------|---------|---------|---------|---------| x4 

Change Tuning! 
A (low) Ab Db Gb Bb Eb 

 DROP 

 guitar 1 
eb|---------|---------|---------|---------|---------|---------|---------|---------|--------|---------| 
Bb|---------|---------|---------|---------|---------|---------|---------|---------|--------|---------| 
Gb|---------|---------|---------|---------|---------|---------|---------|---------|--------|---------| 
Db|---------|-10-10-10|---9-----|--7--7---|---5--5--|----9----|---------|---------|--------|---------| 
Ab|---------|---------|---------|---------|---------|---------|---------|--7--7---|--7--7--|7-7-7-7-2| 
A |--0------|---------|---------|---------|---------|---------|----6----|---------|--------|---------|x3 

eb|---------|---------|---------|---------|---------|---------|---------|---------|--------|---------| 
Bb|---------|---------|---------|---------|---------|---------|---------|---------|--------|---------| 
Gb|---------|---------|---------|---------|---------|---------|---------|---------|--------|---------| 
Db|---------|-10-10-10|---9-----|--7--7---|---5--5--|----9----|---------|---------|--------|---------| 
Ab|---------|---------|---------|---------|---------|---------|---------|--7--7---|--7--7--|7-7-7-7-7| 
A |--0------|---------|---------|---------|---------|---------|----6----|---------|--------|---------| 

eb|----------------| 
Bb|----------------| 
Gb|----------------| 
Db|----------------| 
Ab|----------------| 
A |--11------------|x8 

eb|----------------| 
Bb|----------------| 
Gb|----------------| 
Db|----------------| 
Ab|----------------| 
A |--16------------|x6 

x2 

eb|----------------| 
Bb|----------------| 
Gb|----------------| 
Db|----------------| 
Ab|----------------| 
A |--11------------|x8 

eb|----------------| 
Bb|----------------| 
Gb|----------------| 
Db|----------------| 
Ab|----------------| 
A |--13------------|x6 


Solo 

eb|---------|---------|---------|---------|---------|---------|---------|---------|--------|-----| 
Bb|---17----|---15----|---------|----15---|---------|---15----|---17----|---------|----15--|-----| 
Gb|---------|---------|----16---|---------|---16----|---------|---------|---16----|--------|-16--| 
Db|---------|---------|---------|---------|---------|---------|---------|---------|--------|-----| 
Ab|---------|---------|---------|---------|---------|---------|---------|---------|--------|-----| 
A |---------|---------|---------|---------|---------|---------|---------|---------|--------|-----| 

eb|---15----|---------|---18----|---16----|---14----|---------|---------|---------|--------|-----| 
Bb|---------|---------|---------|---------|---------|---18----|---15----|---17----|--------|-----| 
Gb|---------|---------|---------|---------|---------|---------|---------|---------|--------|-----| 
Db|---------|---------|---------|---------|---------|---------|---------|---------|--------|-----| 
Ab|---------|---------|---------|---------|---------|---------|---------|---------|--------|-----| 
A |---------|---------|---------|---------|---------|---------|---------|---------|--------|-----| 
  

cifra enviadasem correções
enviado porenviada por:brunblazkowski
top 5 | lost frequencies
top rock'n roll
Outras músicas do artista letras do(a) Lost Frequencies
Top cifras »Top artistas »
Petaxxon Comunicação Online
Cifras.com.br - Melhor e mais completo site de cifras e tablaturas do Brasil
Mais de 1 milhão de acordes de músicas cadastradas desde 2003
As informações contidas no nosso site são colaborações de seus usuários e podem conter erros, sendo assim, não nos responsabilizamos sobre nenhuma destas.
close
menos
mais
close
Cor dos acordes:

Cor da letra:

 

save
close
close
 
redimensionar