Cifras e Tablaturas
Lostprophets

Lostprophets

Better Off Dead

Cifras Cancelar Versão de Impressão

Lostprophets - Better Off Dead

Tom:

  			


Intro  

e|--------------------------------------------------------------------------------------| 
B|--------------------------------------------------------------------------------------| 
G|--------------------------------------------------------------------------------------| 
D|-6666-2222-9999-4444--6666-2222-9-11-8-8-44--6666-2222-9999-1111-22222222-222222-44-6-| 
A|-6666-2222-9999-4444--6666-2222-9-11-8-8-44--6666-2222-9999-1111-22222222-222222-44-6-| 
D|-6666-2222-9999-4444--6666-2222-9-11-8-8-44--6666-2222-9999-1111-22222222-222222-44-6-| 
							      (Those are 1's not 11's) 


Verse 

e|--------------------------------------| 
B|--------------------------------------| 
G|--------------------------------------| 
D|-66666666-66666666-22222222-9999-4444-| x4 
A|-66666666-66666666-22222222-9999-4444-| 
D|-66666666-66666666-22222222-9999-4444-| 
   *-----------------------------------*heavy palm muting first 2 times round, 
                                        lighter palm muting last 2 times round 


Chorus 

e|------------------------------------------------------------------------------------| 
B|------------------------------------------------------------------------------------| 
G|------------------------------------------------------------------------------------| 
D|-6666-2222-9999-4444--6666-2222-9-11-8-8-44--6666-2222-4444-1111-22222222-222222-44-| 
A|-6666-2222-9999-4444--6666-2222-9-11-8-8-44--6666-2222-4444-1111-22222222-222222-44-| 
D|-6666-2222-9999-4444--6666-2222-9-11-8-8-44--6666-2222-4444-1111-22222222-222222-44-| 


Pre verse 

e|-------------------| 
B|-------------------| 
G|-------------------| 
D|-66666666-66666666-| 
A|-66666666-66666666-| 
D|-66666666-66666666-| 
   *----------------* heavy palm muting 

Play Verse again 

Play Chorus through twice 


Post Chorus 

e|------------------------------------------------------------| 
B|------------------------------------------------------------| 
G|------------------------------------------------------------| 
D|-22222222-22222244--22222222-22222244--22222222-22222222--6-| 
A|-22222222-22222244--22222222-22222244--22222222-22222222--6-| 
D|-22222222-22222244--22222222-22222244--22222222-22222222--6-| 
                                         *---------------*pm 
                                                
Bridge 

e|----------------------------------------------------| 
B|----------------------------------------------------| 
G|----------------------------------------------------| 
D|----------6-6------------------------6-6------------| x4 
A|----------------------------------------------------| 
D|-6-8-6-8-------8-8-6-8-6-8--6-8-6-8-------8-8-6-8-6-| 


Outro 

e|---------------------------------------------------------------------------| 
B|---------------------------------------------------------------------------| 
G|---------------------------------------------------------------------------| 
D|-6--6-6--6--6-6--6--6--6--6-4-4-6------------------------------------------| 
A|-6--6-6--6--6-6--6--6--6--6-4-4-6------------------------------------------| 
D|-6--6-6--6--6-6--6--6--6--6-4-4-6------------------------------------------| 
 
    	
fixar
fixar inscrever-se

enviado porenviado por: carlluz
cifra enviadaCorrigida por: sem correções
logo top cifrasComente
ico música do artistaMúsicas deste artista
ico curtiuCurtiu?
ico destaqueDestaque
Petaxxon Comunicação Online

Cifras.com.br - Melhor e mais completo site de cifras e tablaturas do Brasil Mais de 1 milhão de acordes de músicas cadastradas desde 2003
As informações contidas no nosso site são colaborações de seus usuários e podem conter erros, sendo assim, não nos responsabilizamos sobre nenhuma destas.

close
menos
mais
close
Cor dos acordes:

Cor da letra:

close
Alinhar acordes a direita Alinhar acordes a esquerda Alinhar acordes em baixo Alinhar acordes no topo
close
  Mostrar todos os acordes Esconder acordes muito fáceis Esconder acordes fáceis Esconder acordes intermediários
redimensionar
glossário