Cifras e Tablaturas
Lostprophets

Lostprophets

Jesus Walks

Cifras Cancelar Versão de Impressão

Lostprophets - Jesus Walks

Tom: D

  			AFINAÇÃO  Drop D (DADGBE) 

      
---Intro--- 
       

Lead: 
      
E|-----------------------------------------------------------------------| 
B|-9-9-9-9-9-9-9-8-8-8-8-8-8-8-8-8-8-8-8-8-8-8-8-6-6-6-6-6-6-6-6-6-------| 
G|-8-8-8-8-8-8-8-8-8-8-8-8-8-8-8-8-8-8-8-8-8-8-8-7-7-7-7-7-7-7-7-7-------| x2 
D|-6-6-6-6-6-6-6-8-8-8-8-8-8-8-8-8-8-8-8-8-8-8-8-8-8-8-8-8-8-8-8-8-------| 
A|-----------------------------------------------------------------------| 
D|-----------------------------------------------------------------------| 
       

Rhythm: 
      
E|-----------------------------------------------------------------------| 
B|-----------------------------------------------------------------------| 
G|-----------------------------------------------------------------------| x2 
D|-13------------13------------------------------12----------------------| 
A|-11------------10------------------------------8-----------------------| 
D|-----------------------------------------------------------------------| 
  Play 7 times     Play 16 times                   Play 9 times       


      
---Verse--- 
       

Lead: 
      
E|-----------------------------------------------------------------------| 
B|-9-9-9-9-9-9-9-8-8-8-8-8-8-8-8-8-8-8-8-8-8-8-8-6-6-6-6-6-6-6-6-6-------| 
G|-8-8-8-8-8-8-8-8-8-8-8-8-8-8-8-8-8-8-8-8-8-8-8-7-7-7-7-7-7-7-7-7-------| x4 
D|-6-6-6-6-6-6-6-8-8-8-8-8-8-8-8-8-8-8-8-8-8-8-8-8-8-8-8-8-8-8-8-8-------| 
A|-----------------------------------------------------------------------| 
D|-----------------------------------------------------------------------| 
       

Rhythm: 
      
E|-----------------------------------------------------------------------| 
B|-----------------------------------------------------------------------| 
G|-----------------------------------------------------------------------| x4 
D|-13------------13------------------------------12----------------------| 
A|-11------------10------------------------------8-----------------------| 
D|-----------------------------------------------------------------------| 
  Play 7 times     Play 16 times                   Play 9 times       


      
---Pre-Chorus (but not before the Chorus yet)--- 
       

Lead/Rhythm: 
      
E|-----------------------------------------------------------------------| 
B|-----------------------------------------------------------------------| 
G|-----------------------------------------------------------------------| 
D|-6-------8-------10-------8-------6-------8-------10-------13----------| 
A|-6-------8-------10-------8-------6-------8-------10-------13----------| 
D|-6-------8-------10-------8-------6-------8-------10-------13----------| 
       

---verse 2--- 

Lead: 
      
E|-----------------------------------------------------------------------| 
B|-9-9-9-9-9-9-9-8-8-8-8-8-8-8-8-8-8-8-8-8-8-8-8-6-6-6-6-6-6-6-6-6-------| 
G|-8-8-8-8-8-8-8-8-8-8-8-8-8-8-8-8-8-8-8-8-8-8-8-7-7-7-7-7-7-7-7-7-------| x4 
D|-6-6-6-6-6-6-6-8-8-8-8-8-8-8-8-8-8-8-8-8-8-8-8-8-8-8-8-8-8-8-8-8-------| 
A|-----------------------------------------------------------------------| 
D|-----------------------------------------------------------------------| 
       

Rhythm: 
      
E|-----------------------------------------------------------------------| 
B|-----------------------------------------------------------------------| 
G|-----------------------------------------------------------------------| x2 
D|-13------------13------------------------------12----------------------| 
A|-11------------10------------------------------8-----------------------| 
D|-----------------------------------------------------------------------| 
  Play 7 times     Play 16 times                   Play 9 times       


      
E|-----------------------------------------------------------------------| 
B|-----------------------------------------------------------------------| 
G|-----------------------------------------------------------------------| x2 
D|-----6-----6---6-----5-----5-5-5-----5-----5---5-----3-----3-3-3-------| 
A|-----6-----6---6-----5-----5-5-5-----5-----5---5-----3-----3-3-3-------| 
D|-----6-----6---6-----5-----5-5-5-----5-----5---5-----3-----3-3-3-------| 
       


      
---Pre-Chorus--- 
       

Lead/Rhythm: 
      
E|-----------------------------------------------------------------------| 
B|-----------------------------------------------------------------------| 
G|-----------------------------------------------------------------------| 
D|-6-------8-------10-------8-------6-------8-------10-------13----------| 
A|-6-------8-------10-------8-------6-------8-------10-------13----------| 
D|-6-------8-------10-------8-------6-------8-------10-------13----------| 
       

      
---Chorus--- 
       

Lead/Rhythm: 
      
E|-----------------------------------------------------------------------| 
B|-----------------------------------------------------------------------| 
G|-----------------------------------------------------------------------| x2 
D|-6-6-6-6-6-6-6-1--1-1-1-1-1-1-1-8-8-8-8-8-8-8-10--10-10-10-10-10-10-10-| 
A|-6-6-6-6-6-6-6-1--1-1-1-1-1-1-1-8-8-8-8-8-8-8-10--10-10-10-10-10-10-10-| 
D|-6-6-6-6-6-6-6-1--1-1-1-1-1-1-1-8-8-8-8-8-8-8-10--10-10-10-10-10-10-10-| 
       

---verse 3--- 

Lead: 
      
E|-----------------------------------------------------------------------| 
B|-9-9-9-9-9-9-9-8-8-8-8-8-8-8-8-8-8-8-8-8-8-8-8-6-6-6-6-6-6-6-6-6-------| 
G|-8-8-8-8-8-8-8-8-8-8-8-8-8-8-8-8-8-8-8-8-8-8-8-7-7-7-7-7-7-7-7-7-------| x2 
D|-6-6-6-6-6-6-6-8-8-8-8-8-8-8-8-8-8-8-8-8-8-8-8-8-8-8-8-8-8-8-8-8-------| 
A|-----------------------------------------------------------------------| 
D|-----------------------------------------------------------------------| 
       

Rhythm: 
      
E|--------------------------------------------------------------------------| 
B|--------------------------------------------------------------------------| 
G|--------------------------------------------------------------------------| x2 
D|-----6-----6---6-----5-----5-5-5-----5-----5---5-----3-----3-3-3----------| 
A|-----6-----6---6-----5-----5-5-5-----5-----5---5-----3-----3-3-3----------| 
D|-----6-----6---6-----5-----5-5-5-----5-----5---5-----3-----3-3-3----------| 
       
      
---Pre-Chorus---------------------------------------------------------------| 
       

Lead/Rhythm: 
      
E|-----------------------------------------------------------------------| 
B|-----------------------------------------------------------------------| 
G|-----------------------------------------------------------------------| 
D|-6-------8-------10-------8-------6-------8-------10-------13----------| 
A|-6-------8-------10-------8-------6-------8-------10-------13----------| 
D|-6-------8-------10-------8-------6-------8-------10-------13----------| 
       

      
---Chorus--- 
       

Lead/Rhythm: 
      
E|-----------------------------------------------------------------------| 
B|-----------------------------------------------------------------------| 
G|-----------------------------------------------------------------------| x4 
D|-6-6-6-6-6-6-6-1--1-1-1-1-1-1-1-8-8-8-8-8-8-8-10--10-10-10-10-10-10-10-| 
A|-6-6-6-6-6-6-6-1--1-1-1-1-1-1-1-8-8-8-8-8-8-8-10--10-10-10-10-10-10-10-| 
D|-6-6-6-6-6-6-6-1--1-1-1-1-1-1-1-8-8-8-8-8-8-8-10--10-10-10-10-10-10-10-| 
       


---Solo--- 
This solo is not difficult once you get the feel of it. 

Lead: 
      
E|---------------------------6-8-6---------------------------------------| 
B|-8-8-6-6-------8-8-6-6-8-8---------------------------------------------| 
G|---------3-3-3---------------------------------------------------------| x2 
D|-----------------------------------------------------------------------| 
A|-----------------------------------------------------------------------| 
D|-----------------------------------------------------------------------| 
       

      
E|-----------------------------------------------------------6-8-6-------| 
B|-3-3-4-4-6-6-8-3-3-3-4-4-6-6-8-8-8-6-4---------8-8-6-6-8-8-------------| 
G|---------------------------------------3-3-3-3-------------------------| 
D|-----------------------------------------------------------------------| 
A|-----------------------------------------------------------------------| 
D|-----------------------------------------------------------------------| 
       

Repeat the entire solo (when the vocals come in) 

Rhythm: 
      
E|-----------------------------------------------------------------------| 
B|-----------------------------------------------------------------------| 
G|-----------------------------------------------------------------------| 
D|-3-3-3-3-3-3-3-3-3-3-3-3-3-3-3-3-6-6-6-6-6-6-6-6-6-6-6-6-6-6-6-6-------| 
A|-3-3-3-3-3-3-3-3-3-3-3-3-3-3-3-3-6-6-6-6-6-6-6-6-6-6-6-6-6-6-6-6-------| 
D|-3-3-3-3-3-3-3-3-3-3-3-3-3-3-3-3-6-6-6-6-6-6-6-6-6-6-6-6-6-6-6-6-------| 
       

      
E|-----------------------------------------------------------------------| 
B|-----------------------------------------------------------------------| 
G|-----------------------------------------------------------------------| 
D|-1-1-1-1-1-1-1-1-1-1-1-1-1-1-1-1-8-8-8-8-8-8-8-8-8-8-8-8-8-8-8-8-------| 
A|-1-1-1-1-1-1-1-1-1-1-1-1-1-1-1-1-8-8-8-8-8-8-8-8-8-8-8-8-8-8-8-8-------| 
D|-1-1-1-1-1-1-1-1-1-1-1-1-1-1-1-1-8-8-8-8-8-8-8-8-8-8-8-8-8-8-8-8-------| 
       

Repeat this entire section (when the vocals come in) 

---Final Pre-Chorus--- 

Lead/Rhythm: 
      
E|-----------------------------------------------------------------------| 
B|-----------------------------------------------------------------------| 
G|-----------------------------------------------------------------------| 
D|-----------------------------------------------------------------------| 
A|-----------------------------------------------------------------------| 
D|-----------------------------------------------------------------------| 
       

      
E|-----------------------------------------------------------------------| 
B|-----------------------------------------------------------------------| 
G|-----------------------------------------------------------------------| 
D|-6-6-6-6-6-6-6-6-4-4-4-4-4-4-4-4-1-------------------------------------| 
A|-6-6-6-6-6-6-6-6-4-4-4-4-4-4-4-4-1--------------------*Epic drum fill*-| 
D|-6-6-6-6-6-6-6-6-4-4-4-4-4-4-4-4-1-------------------------------------| 
       

---Final Chorus--- 

Lead/Rhythm: 
      
E|-----------------------------------------------------------------------| 
B|-----------------------------------------------------------------------| 
G|-----------------------------------------------------------------------| x6 
D|-6-6-6-6-6-6-6-1--1-1-1-1-1-1-1-8-8-8-8-8-8-8-10--10-10-10-10-10-10-10-| 
A|-6-6-6-6-6-6-6-1--1-1-1-1-1-1-1-8-8-8-8-8-8-8-10--10-10-10-10-10-10-10-| 
D|-6-6-6-6-6-6-6-1--1-1-1-1-1-1-1-8-8-8-8-8-8-8-10--10-10-10-10-10-10-10-| 
       

      
---Outro--- 
       

Lead/Rhythm: 
E|-----------------------------------------------------------------------| 
B|-----------------------------------------------------------------------| 
G|-----------------------------------------------------------------------| 
D|-6---------------------------------------------------------------------| 
A|-6---------------------------------------------------------------------| 
D|-6---------------------------------------------------------------------| 
    	
fixar
fixar inscrever-se

enviado porenviado por: VsWorld
cifra enviadaCorrigida por: sem correções
logo top cifrasComente
ico música do artistaMúsicas deste artista
ico curtiuCurtiu?
ico destaqueDestaque
Petaxxon Comunicação Online

Cifras.com.br - Melhor e mais completo site de cifras e tablaturas do Brasil Mais de 1 milhão de acordes de músicas cadastradas desde 2003
As informações contidas no nosso site são colaborações de seus usuários e podem conter erros, sendo assim, não nos responsabilizamos sobre nenhuma destas.

close
menos
mais
close
Cor dos acordes:

Cor da letra:

close
Alinhar acordes a direita Alinhar acordes a esquerda Alinhar acordes em baixo Alinhar acordes no topo
close
  Mostrar todos os acordes Esconder acordes muito fáceis Esconder acordes fáceis Esconder acordes intermediários
redimensionar
glossário