Cifras e Tablaturas
Lostprophets

Lostprophets

Last summer(solo)

Cifras Cancelar Versão de Impressão

Lostprophets - Last summer(solo)

Tom:

  			--10-10-10-10------------14>15--14---- 
--------------10-10-8-8------------15- 
-------------------------------------- REPETE DUAS VEZES E ENTAO 
-------------------------------------- 
-------------------------------------- 
-------------------------------------- 
 
______________________________________________ 
 
-15-14------15-14----17,14----19,14---- 
-------15---------15-------15-------15-- 
---------------------------------------- 
---------------------------------------- 
---------------------------------------- 
---------------------------------------- 
 
depois toca u solo ateh u final da musica 
 
 
 
qlqr coisa 
 
[email protected] 

    	
fixar
fixar inscrever-se

enviado porenviado por: i´m awesome
cifra enviadaCorrigida por: sem correções
logo top cifrasComente
ico música do artistaMúsicas deste artista
ico curtiuCurtiu?
ico destaqueDestaque
Petaxxon Comunicação Online

Cifras.com.br - Melhor e mais completo site de cifras e tablaturas do Brasil Mais de 1 milhão de acordes de músicas cadastradas desde 2003
As informações contidas no nosso site são colaborações de seus usuários e podem conter erros, sendo assim, não nos responsabilizamos sobre nenhuma destas.

close
menos
mais
close
Cor dos acordes:

Cor da letra:

close
Alinhar acordes a direita Alinhar acordes a esquerda Alinhar acordes em baixo Alinhar acordes no topo
close
  Mostrar todos os acordes Esconder acordes muito fáceis Esconder acordes fáceis Esconder acordes intermediários
redimensionar
glossário