Cifras e Tablaturas
Lostprophets

Lostprophets

Rooftops (A Liberation Broadcast)

Cifras Cancelar Versão de Impressão

Lostprophets - Rooftops (A Liberation Broadcast)

Tom:

  			Intro:Guitar 1 (no guitar 2) 
e -------------------------------------------------------------------------- 
b -------------------------------------------------------------------------- 
g ---12-12-12-12-12-12----------------12-12-12-12-12-12-12-11-11-11-11-11-11 
d ---xx-xx-xx-xx-xx-xx-12-12-12-12-12-xx-xx-xx-xx-xx-xx-xx-xx-xx-xx-xx-xx-xx 
a ---10-10-10-10-10-10-10-10-10-10-10-10-10-10-10-10-10-10-9 -9 -9 -9 -9 -9- 
e -------------------------------------------------------------------------- 
 
Verse:Guitar 1 (no guitar 2) 
e -------------------------------------------------------------------------- 
b -------------------------------------------------------------------------- 
g ---12-12-12-12-12-12----------------12-12-12-12-12-12-12-11-11-11-11-11-11 
d ---xx-xx-xx-xx-xx-xx-12-12-12-12-12-xx-xx-xx-xx-xx-xx-xx-xx-xx-xx-xx-xx-xx 
a ---10-10-10-10-10-10-10-10-10-10-10-10-10-10-10-10-10-10-9 -9 -9 -9 -9 -9- 
e -------------------------------------------------------------------------- 
 
Will we make.... 
Guitar 1: 
e -------------------------------------------------------------------------- 
b -------------------------------------------------------------------------- 
g ---12-12-12-12-12-12----------------12-12-12-12-12-12-12-11-11-11-11-11-11 
d ---xx-xx-xx-xx-xx-xx-12-12-12-12-12-xx-xx-xx-xx-xx-xx-xx-xx-xx-xx-xx-xx-xx 
a ---10-10-10-10-10-10-10-10-10-10-10-10-10-10-10-10-10-10-9 -9 -9 -9 -9 -9- 
e -------------------------------------------------------------------------- 
Guitar 2: 
e ------------------------------------------------------- 
b ------------------------------------------------------- 
g ----------------2-2-2-2-2-2-----------2-2-2-2-2-2-2---- 
d --5-5-5-5-5-5-5-2-2-2-2-2-2-5-5-5-5-5-2-2-2-2-2-2-2---- 
a --5-5-5-5-5-5-5-0-0-0-0-0-0-5-5-5-5-5-0-0-0-0-0-0-0---- 
e --3-3-3-3-3-3-3-------------3-3-3-3-3------------------ 
 
Chorus:(Guitar 1 and Guitar 2) 
e ------------------------------------------------------ 
b ------------------------------------------------------ 
g ----------------7-7-7-7-7-7-7--------------2-2-2------ 
d --2-2-2-2-2-2-2-7-7-7-7-7-7-7-5-5-5-5-5-5--2-2-2------ 
a --2-2-2-2-2-2-2-5-5-5-5-5-5-5-5-5-5-5-5-5--0-0-0------ 
e ------------------------------3-3-3-3-3-3------------- 
 
Verse:(All the love I´ve met) 
Guitar 1: 
e -------------------------------------------------------------------------- 
b -------------------------------------------------------------------------- 
g ---12-12-12-12-12-12----------------12-12-12-12-12-12-12-11-11-11-11-11-11 
d ---xx-xx-xx-xx-xx-xx-12-12-12-12-12-xx-xx-xx-xx-xx-xx-xx-xx-xx-xx-xx-xx-xx 
a ---10-10-10-10-10-10-10-10-10-10-10-10-10-10-10-10-10-10-9 -9 -9 -9 -9 -9- 
e -------------------------------------------------------------------------- 
Guitar 2: 
e ------------------------------------------------------- 
b ------------------------------------------------------- 
g ----------------2-2-2-2-2-2-----------2-2-2-2-2-2-2---- 
d --5-5-5-5-5-5-5-2-2-2-2-2-2-5-5-5-5-5-2-2-2-2-2-2-2---- 
a --5-5-5-5-5-5-5-0-0-0-0-0-0-5-5-5-5-5-0-0-0-0-0-0-0---- 
e --3-3-3-3-3-3-3-------------3-3-3-3-3------------------ 
 
Chorus:(Guitar 1 and Guitar 2) 
e ------------------------------------------------------ 
b ------------------------------------------------------ 
g ----------------7-7-7-7-7-7-7--------------2-2-2------ 
d --2-2-2-2-2-2-2-7-7-7-7-7-7-7-5-5-5-5-5-5--2-2-2------ 
a --2-2-2-2-2-2-2-5-5-5-5-5-5-5-5-5-5-5-5-5--0-0-0------ 
e ------------------------------3-3-3-3-3-3------------- 
 
Solo (Guitar 1): 
e ------------------------------------------------------------------------------------------------------- 
b ------------------------------------------------------------------------------------------------------- 
g ---4-4-----12-12-12-12-12-12--11-11-11-11-11--7-7-7-7-7-7-7-7-4-4-4--9-9-9-9-9-9-9-11-11--7-7-7-7-7-7-7 
d ---x-x-----xx-xx-xx-xx-xx-xx--xx-xx-xx-xx-xx--x-x-x-x-x-x-x-x-x-x-x--x-x-x-x-x-x-x-xx-xx--x-x-x-x-x-x-x 
a ---2-2-----10-10-10-10-10-10--9 -9 -9 -9 -9 --5-5-5-5-5-5-5-5-2-2-2--7-7-7-7-7-7-7-9 -9 --5-5-5-5-5-5-5 
e ------------------------------------------------------------------------------------------------------- 
 
e ---------------------------------------------------------------------------------------------- 
b ---------------------------------------------------------------------------------------------- 
g ---4-4-----12-12-12-12-12-12--14-14-14-14-14-14--11-11--9-9--7-7-7-7-7-7--4-4-4--9-9-9-9-9-9-9 
d ---x-x-----xx-xx-xx-xx-xx-xx--xx-xx-xx-xx-xx-xx--xx-xx--x-x--x-x-x-x-x-x--x-x-x--x-x-x-x-x-x-x 
a ---2-2-----10-10-10-10-10-10--12-12-12-12-12-12--9 -9 --7-7--5-5-5-5-5-5--2-2-2--7-7-7-7-7-7-7 
e ---------------------------------------------------------------------------------------------- 
 
Guitar 2: 
e ----------------------------------------------------------------- 
b ----------------------------------------------------------------- 
g ---------------7-7-7-7-7-7-7-7-7----------------2-2-2-2-2-2-2-2-2 
d -2-2-2-2-2-2-2-7-7-7-7-7-7-7-7-7-5-5-5-5-5-5-5--2-2-2-2-2-2-2-2-2 
a -2-2-2-2-2-2-2-5-5-5-5-5-5-5-5-5-5-5-5-5-5-5-5--0-0-0-0-0-0-0-0-0 
e ---------------------------------3-3-3-3-3-3-3------------------- 
 
e ------------------------------------------------------ 
b ------------------------------------------------------ 
g ---------------7-7-7-7-7-7-7-7-7---------------------- 
d -2-2-2-2-2-2-2-7-7-7-7-7-7-7-7-7-5-5-5-5-5-5-5-------- 
a -2-2-2-2-2-2-2-5-5-5-5-5-5-5-5-5-5-5-5-5-5-5-5-------- 
e ---------------------------------3-3-3-3-3-3-3-------- 
 
e ------------------------------------------------------ 
b ------------------------------------------------------ 
g ------------------------------------------------------ 
d ---2-2-2---2-2-2-------------------------------------- 
a ---2-2-2---2-2-2-------------------------------------- 
e ------------------------------------------------------ 
Standing on the rooftops 
(Wait until the bombs drop) 
e ------------------------------------------------------ 
b ------------------------------------------------------ 
g ------------------------------------------------------ 
d ---2-2--2-2-2-2-2------------------------------------- 
a ---2-2--2-2-2-2-2------------------------------------- 
e ------------------------------------------------------ 
This is all we got now 
(Scream until your heart stops) 
e ------------------------------------------------------ 
b ------------------------------------------------------ 
g ------7-7--7-7-7-7-7-7-------------------------------- 
d ------7-7--7-7-7-7-7-7-------------------------------- 
a ------5-5--5-5-5-5-5-5-------------------------------- 
e ------------------------------------------------------ 
Never gonna regret 
(Watching every sunset) 
e ------------------------------------------------------ 
b ------------------------------------------------------ 
g ------9-9--9-9-9-9-9-9-9------------------------------ 
d ------9-9--9-9-9-9-9-9-9------------------------------ 
a ------7-7--7-7-7-7-7-7-7------------------------------ 
e ------------------------------------------------------ 
 
We´ll Listen to your heartbeat 
(All the love that we found) 
e ------------------------------------------------------ 
b ------------------------------------------------------ 
g ---------12-12--12-12-12-12-12------------------------ 
d ---------12-12--12-12-12-12-12------------------------ 
a ---------10-10--10-10-10-10-10------------------------ 
e ------------------------------------------------------ 
 
Scream your heart out {x4} 
e ------------------------------------------------------ 
b ------------------------------------------------------ 
g ----------------7-7-7-7-7-7-7--------------2-2-2------ 
d --2-2-2-2-2-2-2-7-7-7-7-7-7-7-5-5-5-5-5-5--2-2-2------ 
a --2-2-2-2-2-2-2-5-5-5-5-5-5-5-5-5-5-5-5-5--0-0-0------ 
e ------------------------------3-3-3-3-3-3------------- 
 
e ------------------------------------------------------ 
b ------------------------------------------------------ 
g ------------------------------------------------------ 
d ---2-2-2---2-2-2-------------------------------------- 
a ---2-2-2---2-2-2-------------------------------------- 
e ------------------------------------------------------ 
 
Chorus Ultime: 
e ------------------------------------------------------ 
b ------------------------------------------------------ 
g ----------------7-7-7-7-7-7-7--------------2-2-2------ 
d --2-2-2-2-2-2-2-7-7-7-7-7-7-7-5-5-5-5-5-5--2-2-2------ 
a --2-2-2-2-2-2-2-5-5-5-5-5-5-5-5-5-5-5-5-5--0-0-0------ 
e ------------------------------3-3-3-3-3-3------------- 
 
End Note: 
e --------- 
b --------- 
g --------- 
d --2--2--2 
a --2--2--2 
e --------- 
 
Lostprophets Punk rOCk! 
Yeah! 
 

    	
fixar
fixar inscrever-se

enviado porenviado por: Stump
cifra enviadaCorrigida por: sem correções
logo top cifrasComente
ico música do artistaMúsicas deste artista
ico curtiuCurtiu?
ico destaqueDestaque
Petaxxon Comunicação Online

Cifras.com.br - Melhor e mais completo site de cifras e tablaturas do Brasil Mais de 1 milhão de acordes de músicas cadastradas desde 2003
As informações contidas no nosso site são colaborações de seus usuários e podem conter erros, sendo assim, não nos responsabilizamos sobre nenhuma destas.

close
menos
mais
close
Cor dos acordes:

Cor da letra:

close
Alinhar acordes a direita Alinhar acordes a esquerda Alinhar acordes em baixo Alinhar acordes no topo
close
  Mostrar todos os acordes Esconder acordes muito fáceis Esconder acordes fáceis Esconder acordes intermediários
redimensionar
glossário