Cifras e Tablaturas
Cifras Cancelar Versão de Impressão
cifras

Luana Berti - Cais

fixar na tela  
Exibindo: vídeo-aula ver clipes redimensionar

Tom:

G

ver outros tons
  
e|-------------------------H12-------------| 
B|-----0---------0---------H12--------0----| 
G|--0-----0---0-----0---0------0---0-----0-| 
D|-----------------------------------------| 
A|-----------------------------------------| 
E|-0--0--0---0--0--0---0--0---0---0--0--0--| 


e|-----------------------------------------| 
B|-----0---------0---------0----------0----| 
G|--0-----0---0-----0---0------0---0-----0-| 
D|-----------------------------------------| 
A|-----------------------------------------| 
E|-3--3--3---3--3--3---3--3---3---3--3--3--| 


e|---------------H12------------------H12---| 
B|-----0---------H12--------0---------H12---| 
G|--0-----0---0------0---0-----0---0------0-| 
D|------------------------------------------| 
A|------------------------------------------| 
E|-0--0--0---0--0---0---0--0--0---0--0---0--| 


e|------------------------| 
B|-----0---------0--------| 
G|--0-----0---0-----0-----| 
D|------------------------| 
A|------------------------| 
E|-3--3--3---3--3--3---3~~| 



Não acreditava que isso fosse tão longe assim 


e|-----------------------------------------| 
B|-----0---------0---------0----------0----| 
G|--0-----0---0-----0---0------0---0-----0-| 
D|-----------------------------------------| 
A|-----------------------------------------| 
E|-0--0--0---0--0--0---0--0---0---0--0--0--| 


e|-----------------------------------------| 
B|-----0---------0---------0----------0----| 
G|--0-----0---0-----0---0------0---0-----0-| 
D|-----------------------------------------| 
A|-----------------------------------------| 
E|-3--3--3---3--3--3---3--3---3---3--3--3--| 



Já faz algum tempo e não estamos nem perto do fim 


e|-----------------------------------------| 
B|-----0---------0---------0----------0----| 
G|--0-----0---0-----0---0------0---0-----0-| 
D|-----------------------------------------| 
A|-----------------------------------------| 
E|-0--0--0---0--0--0---0--0---0---0--0--0--| 


e|-----------------------------------------| 
B|-----0---------0---------0----------0----| 
G|--0-----0---0-----0---0------0---0-----0-| 
D|-----------------------------------------| 
A|-----------------------------------------| 
E|-3--3--3---3--3--3---3--3---3---3--3--3--| 



Sei que as vezes nós andamos meio na contramão 


e|---------------H12------------------H12---| 
B|-----0---------H12--------0---------H12---| 
G|--0-----0---0------0---0-----0---0------0-| 
D|------------------------------------------| 
A|------------------------------------------| 
E|-0--0--0---0--0---0---0--0--0---0--0---0--| 


e|-----------------------------------------| 
B|-----0---------0---------0----------0----| 
G|--0-----0---0-----0---0------0---0-----0-| 
D|-----------------------------------------| 
A|-----------------------------------------| 
E|-3--3--3---3--3--3---3--3---3---3--3--3--| 



Mas mulher tu me invade a cabeça e tomou o coração 


e|---------------H12-----------------------| 
B|-----0---------H12--------0---------0----| 
G|--0-----0---0------0---0-----0---0-----0-| 
D|-----------------------------------------| 
A|-----------------------------------------| 
E|-0--0--0---0--0---0---0--0--0---0--0--0--| 


e|------------------------| 
B|-----0---------0--------| 
G|--0-----0---0-----0-----| 
D|------------------------| 
A|------------------------| 
E|-3--3--3---3--3--3---3~~| 



Tão fácil assim 


e|-----------------------------------------| 
B|-----0---------0---------0----------0----| 
G|--0-----0---0-----0---0------0---0-----0-| 
D|-----------------------------------------| 
A|-----------------------------------------| 
E|-8--8--8---8--8--8---8--8---8---8--8--8--| 


e|-----------------------------------------| 
B|-----0---------0---------0----------0----| 
G|--0-----0---0-----0---0------0---0-----0-| 
D|-----------------------------------------| 
A|-----------------------------------------| 
E|-7--7--7---7--7--7---7--7---7---7--7--7--| 



Tão fácil pra mim 


e|-----------------------------------------| 
B|-----0---------0---------0----------0----| 
G|--0-----0---0-----0---0------0---0-----0-| 
D|-----------------------------------------| 
A|-----------------------------------------| 
E|-8--8--8---8--8--8---8--8---8---8--8--8--| 


e|-----------------------------------------| 
B|-----0---------0---------0----------0----| 
G|--0-----0---0-----0---0------0---0-----0-| 
D|-----------------------------------------| 
A|-----------------------------------------| 
E|-7--7--7---7--7--7---7--7---7---7--7--7--| 



Me apaixonar por esse teu olhar 


e|----------------------------------------------------| 
B|-------0------------0------------0------------0-----| 
G|---0-------0----0-------0----0-------0----0-------0-| 
D|----------------------------------------------------| 
A|----------------------------------------------------| 
E|-12--12--12---12--12--12---12--12--12---12--12--12--| 



Teu toque quando me vem abraçar 


e|----------------------------------------------------| 
B|-------0------------0------------0------------0-----| 
G|---0-------0----0-------0----0-------0----0-------0-| 
D|----------------------------------------------------| 
A|----------------------------------------------------| 
E|-10--10--10---10--10--10---10--10--10---10--10--10--| 



Tua boca quando está a me beijar 


e|-----------------------------------------| 
B|-----0---------0---------0----------0----| 
G|--0-----0---0-----0---0------0---0-----0-| 
D|-----------------------------------------| 
A|-----------------------------------------| 
E|-8--8--8---8--8--8---8--8---8---8--8--8--| 



Tão fácil 


e|-------------------------H12-| 
B|-----0---------0---------H12-| 
G|--0-----0---0-----0------H12-| 
D|-----------------------------| 
A|-----------------------------| 
E|-7--7--7---8--8--8---10~~----| 



 


E|---------------H12------------------H12---| 
B|-----0---------H12--------0---------H12---| 
G|--0-----0---0------0---0-----0---0------0-| 
D|------------------------------------------| 
A|------------------------------------------| 
E|-0--0--0---0--0---0---0--0--0---0--0---0--|       
                                                (2x) 

E|-----------------------------------------| 
B|-----0---------0---------0----------0----| 
G|--0-----0---0-----0---0------0---0-----0-|        
D|-----------------------------------------| 
A|-----------------------------------------| 
E|-3--3--3---3--3--3---3--3---3---3--3--3--| 



É tão fácil assim 


E|-----------------------------------------| 
B|-----0---------0---------0----------0----| 
G|--0-----0---0-----0---0------0---0-----0-| 
D|-----------------------------------------| 
A|-----------------------------------------| 
E|-8--8--8---8--8--8---8--8---8---8--8--8--| 


E|-----------------------------------------| 
B|-----0---------0---------0----------0----| 
G|--0-----0---0-----0---0------0---0-----0-| 
D|-----------------------------------------| 
A|-----------------------------------------| 
E|-7--7--7---7--7--7---7--7---7---7--7--7--| 



Tão fácil pra mim 


E|-----------------------------------------| 
B|-----0---------0---------0----------0----| 
G|--0-----0---0-----0---0------0---0-----0-| 
D|-----------------------------------------| 
A|-----------------------------------------| 
E|-8--8--8---8--8--8---8--8---8---8--8--8--| 


E|-----------------------------------------| 
B|-----0---------0---------0----------0----| 
G|--0-----0---0-----0---0------0---0-----0-| 
D|-----------------------------------------| 
A|-----------------------------------------| 
E|-7--7--7---7--7--7---7--7---7---7--7--7--| 



Me apaixonar por esse teu olhar 


E|----------------------------------------------------| 
B|-------0------------0------------0------------0-----| 
G|---0-------0----0-------0----0-------0----0-------0-| 
D|----------------------------------------------------| 
A|----------------------------------------------------| 
E|-12--12--12---12--12--12---12--12--12---12--12--12--| 



Teu toque quando me vem abraçar 


E|----------------------------------------------------| 
B|-------0------------0------------0------------0-----| 
G|---0-------0----0-------0----0-------0----0-------0-| 
D|----------------------------------------------------| 
A|----------------------------------------------------| 
E|-10--10--10---10--10--10---10--10--10---10--10--10--| 



Tua boca quando está a me beijar... 


E|-8--8--8---8--8--8---8--8--8---8--8--8--| 
B|----------------------------------------| 
G|----------------------------------------| 
D|--0-----0---0-----0---0-----0---0-----0-| 
A|-----0---------0---------0---------0----| 
E|----------------------------------------| 


E|-7--7--7---7--7--7---7--7--7---7--7--7--| 
B|----------------------------------------| 
G|----------------------------------------| 
D|--0-----0---0-----0---0-----0---0-----0-| 
A|-----0---------0---------0---------0----| 
E|----------------------------------------| 



Me apaixonar por esse teu olhar 


E|-12--12--12---12--12--12---12--12--12---12--12--12--| 
B|----------------------------------------------------| 
G|----------------------------------------------------| 
D|---0-------0----0-------0----0-------0----0-------0-| 
A|-------0------------0------------0------------0-----| 
E|----------------------------------------------------| 



Teu toque quando me vem abraçar 


E|-10--10--10---10--10--10---10--10--10---10--10--10--| 
B|----------------------------------------------------| 
G|----------------------------------------------------| 
D|---0-------0----0-------0----0-------0----0-------0-| 
A|-------0------------0------------0------------0-----| 
E|----------------------------------------------------| 



Tua boca quando está a me beijar 


E|-----------------------------------------| 
B|-----0---------0---------0----------0----| 
G|--0-----0---0-----0---0------0---0-----0-| 
D|-----------------------------------------| 
A|-----------------------------------------| 
E|-8--8--8---8--8--8---8--8---8---8--8--8--| 



É tão fácil 


E|-------------------------H12-| 
B|-----0---------0---------H12-| 
G|--0-----0---0-----0------H12-| 
D|-----------------------------| 
A|-----------------------------| 
E|-7--7--7---8--8--8---10~~----| 


E|---------------H12------------------H12---| 
B|-----0---------H12--------0---------H12---| 
G|--0-----0---0------0---0-----0---0------0-| 
D|------------------------------------------| 
A|------------------------------------------| 
E|-0--0--0---0--0---0---0--0--0---0--0---0--| 


E|-----------------------------------------| 
B|-----0---------0---------0----------0----| 
G|--0-----0---0-----0---0------0---0-----0-| 
D|-----------------------------------------| 
A|-----------------------------------------| 
E|-3--3--3---3--3--3---3--3---3---3--3--3--| 



É tão fácil 


E|---------------H12------------------H12---| 
B|-----0---------H12--------0---------H12---| 
G|--0-----0---0------0---0-----0---0------0-| 
D|------------------------------------------| 
A|------------------------------------------| 
E|-0--0--0---0--0---0---0--0--0---0--0---0--| 


E|-----------------------------------------| 
B|-----0---------0---------0----------0----| 
G|--0-----0---0-----0---0------0---0-----0-| 
D|-----------------------------------------| 
A|-----------------------------------------| 
E|-3--3--3---3--3--3---3--3---3---3--3--3--| 


E|----H12-| 
B|----H12-| 
G|----H12-| 
D|--------| 
A|--------| 
E|-0~~----| 
  

top 5 | luana berti
top rock'n roll
Outras músicas do artista letras do(a) Luana Berti
5.
Cais
Top cifras »Top artistas »
Petaxxon Comunicação Online
Cifras.com.br - Melhor e mais completo site de cifras e tablaturas do Brasil
Mais de 1 milhão de acordes de músicas cadastradas desde 2003
As informações contidas no nosso site são colaborações de seus usuários e podem conter erros, sendo assim, não nos responsabilizamos sobre nenhuma destas.
close
menos
mais
close
Cor dos acordes:

Cor da letra:

 

save
close
close
 
redimensionar