Cifras e Tablaturas
Luciano Magno

Luciano Magno

Pé De Bode

Cifras Cancelar Versão de Impressão
cifras

Luciano Magno - Pé De Bode

fixar na tela  
Exibindo: vídeo-aula ver clipes redimensionar

Tom:

  
E|-1------1---3------3-------5------5---3--------------| 
B|-1------1---3--------3-----6------6---5--------------| 
G|-2------2---4----------4/--5------5---4---------5-4--| 
D|-0----0---0-0----0---------0----0---0-0--0---0------5| 
A|-----------------------------------------------------| 
E|-----------------------------------------------------| 

E|--------1---3------3-------5------5---3--------------| 
B|--------1---3--------3-----6------6---5--------------| 
G|-2------2---4---4------4/--5------5---4-----4--5--4--| 
D|------0---0-0---0----------0----0---0-0--0----------5| 
A|-----------------------------------------------------| 
E|-----------------------------------------------------| 

E|-1------1---3------3-------5------5---3--------------| 
B|-1------1---3--------3-----6------6---5--------------| 
G|-2------2---4----------4/--5------5---4--------5p4---| 
D|-0----0---0-0----0---------0----0---0--------------5-| 
A|-----------------------------------------------------| 
E|-----------------------------------------------------| 

E|-1------1---3------3-------5------5---3--------------| 
B|-1------1---3--------3-----6------6---5-----5------5-| 
G|-2------2---4----------4/--5------5---4-------4----2-| 
D|-0----0---0-0----0---------0----0-----0---0-----0--3-| 
A|---------------------------------------------------5-| 
E|-----------------------------------------------------| 


Parte A: 

E|-------------------------6/7--------------------5----| 
B|---------------6-5------------8-6---------------6----| 
G|-----2-5-4---4-----7-7~-----------7-5-4---------5----| 
D|---3-------5----------------------------5-------7----| 
A|-5----------------------------------------5-8~--5---2| 
E|-----------------------------------------------------| 

E|---------------------------7-------------------------| 
B|----------------6-5----------8-----------------------| 
G|------2-5-4---4-----7-7-7------7-10-9----------------| 
D|----3-------5-------------------------10-9-7---------| 
A|-5~------------------------------------------8-7-----| 
E|-------------------------------------------------10--| 

E|------12--12-----------------------------------------| 
B|------10--10-----------------------------------------| 
G|------10--10--X--------------------------------------| 
D|-------9---9--X--------------------------------------| 
A|--------------X--------------------------------------| 
E|-10~----------X--------------------------------------| 

E|------------------------6/7-6/7------------------5---| 
B|---------------6-5--------------8-6--------------6---| 
G|-----2-5-4---4-----7-7~-------------7-5-4--------5---| 
D|---3-------5------------------------------5------7---| 
A|-5------------------------------------------5-8~-5--2| 
E|-----------------------------------------------------| 

E|---------------------------7-------------------------| 
B|----------------6-5----------8-----------------------| 
G|------2-5-4---4-----7-7-7------7-10-9----------------| 
D|----3-------5-------------------------10-9-7---------| 
A|-5~------------------------------------------8-7-----| 
E|-------------------------------------------------10--| 

E|-----------------------------------------------------| 
B|-----------------------------------------------------| 
G|-----------------------------------------------------| 
D|-----------------------------------------------------| 
A|-----------------------------------------------------| 
E|-10~-------------------------------------------------| 

E|------------------------6/7-6/7------------------5---| 
B|---------------6-5--------------8-6--------------6---| 
G|-----2-5-4---4-----7-7~-------------7-5-4--------5---| 
D|---3-------5------------------------------5------7---| 
A|-5------------------------------------------5-8~-5--2| 
E|-----------------------------------------------------| 

E|---------------------------7-------------------------| 
B|----------------6p5----------8-----------------------| 
G|------2-5-4---4-----7-7-7------7-10-9----------------| 
D|----3-------5-------------------------10-9p7---------| 
A|-5~------------------------------------------8-7-----| 
E|-------------------------------------------------10--| 

E|--------15-15----------------------------------------| 
B|--------13-13----------------------------------------| 
G|------X-14-14----------------------------------------| 
D|------X-12-12----------------------------------------| 
A|------X----------------------------------------------| 
E|-10~--X----------------------------------------------| 

E|------------------------6/7-6/7------------------5---| 
B|---------------6-5--------------8-6--------------6---| 
G|-----2-5-4---4-----7-7~-------------7-5-4--------5---| 
D|---3-------5------------------------------5------7---| 
A|-5------------------------------------------5-8~-5--2| 
E|-----------------------------------------------------| 

E|---------------------------7-------------------------| 
B|----------------6p5----------8-----------------------| 
G|------2-5-4---4-----7-7-7------7-10-9----------------| 
D|----3-------5-------------------------10-9p7---------| 
A|-5~------------------------------------------8-7-----| 
E|-------------------------------------------------10--| 

E|-----------------------------------------------------| 
B|-----------------------------------------------------| 
G|-----------------------------------------------------| 
D|-----------------------------------------------------| 
A|-----------------------------------------------------| 
E|-10~-------------------------------------------------| 



Parte B: 

E|-----------------------------------------------------| 
B|------------8---------------------8------------/10~-6| 
G|--------/9----9---------------9-7---10-9-7---7-/10~-6| 
D|---7-10---------10-7~----7-10--------------9---------| 
A|-8---------------------8-----------------------------| 
E|-----------------------------------------------------| 

E|-----------------------------------------------------| 
B|------------8-------------6-5-8-6-------5------------| 
G|--------/9----9-----------------------5---7----------| 
D|---7-10---------10-7~--7----------6-7-------7--------| 
A|-8--------------------------------------------8-5~---| 
E|-----------------------------------------------------| 

E|---------8--11/12~---15p12---------------------------| 
B|-----10--------------------13------------------------| 
G|-10------5---8/-9~------------14~--14----------------| 
D|------7----------------------------------------------| 
A|--8--------------------------------------------------| 
E|-----------------------------------------------------| 

E|-------8-12-10-15-13-12-----------13\----10\---------| 
B|----10------------------15-12-15--15\----12\---------| 
G|-10--------------------------------------------------| 
D|-----------------------------------------------------| 
A|-----------------------------------------------------| 
E|-----------------------------------------------------| 

E|-------8-10/12~----15p12-----------------------------| 
B|----10-------------------13--------------------------| 
G|-10-------------------------14~--14------------------| 
D|-----------------------------------------------------| 
A|-----------------------------------------------------| 
E|-----------------------------------------------------| 

E|-13-12-15-13----------12-----------------------------| 
B|-------------------13----15--------------------------| 
G|-------------13-14----------14-----------------------| 
D|-------------------------------15-12~----------------| 
A|-----------------------------------------------------| 
E|-----------------------------------------------------| 


Parte C: 

E|-----5-------------------4/5-----------5-8-7-6-10----| 
B|-6-6---6-8-8-----6-5-8---5/6---------6---------------| 
G|-------------4-7-------7------7----7-----------------| 
D|-----------------------------------------------------| 
A|-----------------------------------------------------| 
E|-----------------------------------------------------| 

E|-5---------------------------------------------------| 
B|---8-5-----------------------------------------------| 
G|-------7-5~------------------------------------------| 
D|-----------------------------------------------------| 
A|-----------------------------------------------------| 
E|-----------------------------------------------------| 
E|-----5-----------------------------------------------| 
B|-6-6---6-8-8-----6-5-8---6-5-------------------------| 
G|-------------4-7-------7-----8-7-5-------------------| 
D|-----------------------------------9-7-5-------7-5---| 
A|-----------------------------------------8-5-8-----8-| 
E|-----------------------------------------------------| 

E|-----------------------------------------------------| 
B|-----------------------------------------------------| 
G|-----------------------------------------------------| 
D|-----------------------------------------------------| 
A|-7-5-5~----------------------------------------------| 
E|-----------------------------------------------------| 

E|-----5-------------------4/5-----------5-8-7-6-10----| 
B|-6-6---6-8-8-----6-5-8---5/6---------6---------------| 
G|-------------4-7-------7------7----7-----------------| 
D|-----------------------------------------------------| 
A|-----------------------------------------------------| 
E|-----------------------------------------------------| 

E|-5---------------------------------------------------| 
B|---8-5-----------------------------------------------| 
G|-------7-5~------------------------------------------| 
D|-----------------------------------------------------| 
A|-----------------------------------------------------| 
E|-----------------------------------------------------| 
  

top 5 | luciano magno
top rock'n roll
Outras músicas do artista letras do(a) Luciano Magno
Top cifras »Top artistas »
Petaxxon Comunicação Online
Cifras.com.br - Melhor e mais completo site de cifras e tablaturas do Brasil
Mais de 1 milhão de acordes de músicas cadastradas desde 2003
As informações contidas no nosso site são colaborações de seus usuários e podem conter erros, sendo assim, não nos responsabilizamos sobre nenhuma destas.
close
menos
mais
close
Cor dos acordes:

Cor da letra:

 

save
close
close
 
redimensionar