Cifras e Tablaturas
Lucy Rose

Lucy Rose

Is This Called Home

Cifras Cancelar Versão de Impressão
cifras

Lucy Rose - Is This Called Home

fixar na tela  
Exibindo: vídeo-aula ver clipes redimensionar
  
 
Capo 4

Tuning: D A D F# A E  

Intro 
E|--------x--------x--------x-------x--------------------------------------------| 
A|--------5--------4--------9-------7--------------------------------------------| 
F#|-------5---x3---3---x3---8--x3---7----x3-------repeat-------------------------| 
D|--------0--------0--------0-------0--------------------------------------------| 
A|--------0--------0--------0-------0--------------------------------------------| 
D|--------5--------4--------9-------7--------------------------------------------| 

Verse 
same as intro 
E|--------x--------x--------x-------x--------------------------------------------| 
A|--------5--------4--------9-------7--------------------------------------------| 
F#|-------5---x3---3---x3---8--x3---7----x3-------repeat-------------------------| 
D|--------0--------0--------0-------0--------------------------------------------| 
A|--------0--------0--------0-------0--------------------------------------------| 
D|--------5--------4--------9-------7--------------------------------------------| 

Pre-Chorus   
                                                (this part is slowed down a bit) 
E|--------x--------x--------x-------x--------|----x-------------x-----------x-----x---| 
A|--------5--------4--------9-------7--------|----10------------9-----------5-----4---| 
F#|-------5---x3---3---x3---8--x3---7----x3--|----10-----x3-----8---x2------5-----3---| 
D|--------0--------0--------0-------0--------|----0-------------0-----------0-----0---| 
A|--------0--------0--------0-------0--------|----0-------------0-----------0-----0---| 
D|--------5--------4--------9-------7--------|----10------------9-----------5-----4---| 


Chorus  
Is this called home...    played twice 
e|-------x------x-----x-----0-----0-----------------------------------------------| 
A|-------5------7-----9-----0-----0-----------------------------------------------| 
F#|------0------0-----0-----0-----0(h1-0)-----------------------------------------| 
D|-------4------5-----7-----0-----0-----------------------------------------------| 
A|-------5------7-----9-----0-----0-----------------------------------------------| 
D|-------0------0-----0-----0-----0-----------------------------------------------| 

e|-------x------x-----x-----x-----0-----------------------------------------------| 
A|-------5------7-----4-----2-----0-----------------------------------------------| 
F#|------0------0-----0-----0-----0-----------------------------------------------| 
D|-------4------5-----0-----0-----0-----------------------------------------------| 
A|-------5------7-----4-----2-----0-----------------------------------------------| 
D|-------0------0-----0-----0-----0-----------------------------------------------| 

Verse  
E|--------x--------x--------x-------x--------------------------------------------| 
A|--------5--------4--------9-------7--------------------------------------------| 
F#|-------5---x3---3---x3---8--x3---7----x3-------repeat-------------------------| 
D|--------0--------0--------0-------0--------------------------------------------| 
A|--------0--------0--------0-------0--------------------------------------------| 
D|--------5--------4--------9-------7--------------------------------------------| 

Pre-Chorus 
                                               (this part is slowed down a bit) 
E|--------x--------x--------x-------x--------|----x-------------x-----------x-----x---| 
A|--------5--------4--------9-------7--------|----10------------9-----------5-----4---| 
F#|-------5---x3---3---x3---8--x3---7----x3--|----10-----x3-----8---x2------5-----3---| 
D|--------0--------0--------0-------0--------|----0-------------0-----------0-----0---| 
A|--------0--------0--------0-------0--------|----0-------------0-----------0-----0---| 
D|--------5--------4--------9-------7--------|----10------------9-----------5-----4---| 

Chorus  
Is this called home...    played twice 
e|-------x------x-----x-----0-----0-----------------------------------------------| 
A|-------5------7-----9-----0-----0-----------------------------------------------| 
F#|------0------0-----0-----0-----0(h1-0)-----------------------------------------| 
D|-------4------5-----7-----0-----0-----------------------------------------------| 
A|-------5------7-----9-----0-----0-----------------------------------------------| 
D|-------0------0-----0-----0-----0-----------------------------------------------| 

e|-------x------x-----x-----x-----0-----------------------------------------------| 
A|-------5------7-----4-----2-----0-----------------------------------------------| 
F#|------0------0-----0-----0-----0-----------------------------------------------| 
D|-------4------5-----0-----0-----0-----------------------------------------------| 
A|-------5------7-----4-----2-----0-----------------------------------------------| 
D|-------0------0-----0-----0-----0-----------------------------------------------| 

Bridge  
Let me hold your hand... (listen to the song for the plucking pattern) 
e|-------x------x-------x------x-----------------------------------------------------| 
A|-------5------5-------5------2-----------------------------------------------------| 
F#|------5--x4--4---x3--3-x3---2--x4-------------------------------------------------| 
D|-------0------0-------0------0-----------------------------------------------------| 
A|-------0------0-------0------0-----------------------------------------------------| 
D|-------5------5-------4------2-----------------------------------------------------| 

Outro 
same as intro   
E|--------x--------x--------x-------x--------------------------------------------| 
A|--------5--------4--------9-------7--------------------------------------------| 
F#|-------5---x3---3---x3---8--x3---7----x3--------------------------------------| 
D|--------0--------0--------0-------0--------------------------------------------| 
A|--------0--------0--------0-------0--------------------------------------------| 
D|--------5--------4--------9-------7--------------------------------------------| 



************************************ 

| x  Dead note 

************************************ 
  

top 5 | lucy rose
top pop music
Outras músicas do artista letras do(a) Lucy Rose
1.
Scar
Top cifras »Top artistas »
Petaxxon Comunicação Online
Cifras.com.br - Melhor e mais completo site de cifras e tablaturas do Brasil
Mais de 1 milhão de acordes de músicas cadastradas desde 2003
As informações contidas no nosso site são colaborações de seus usuários e podem conter erros, sendo assim, não nos responsabilizamos sobre nenhuma destas.
close
menos
mais
close
Cor dos acordes:

Cor da letra:

 

save
close
close
 
redimensionar