Cifras e Tablaturas
Lucybell
Cifras Cancelar Versão de Impressão

Lucybell - Luces No Belicas

Tom:

  			Algunas notas estaban mal hechas en la anterior transcripción, 
aquí se encuentran correctas... 
...disculpen... 
Intro 

Después de 12 campanas... 

|-------------------|-------------------|-------------------| 
|-------------------|-------------------|-------------------| 
|-------------------|-------------------|-------------------| 
|-------------------|-------------------|-------------------| 
|--2----2--5--5--5--|--2----2--5--5--5--|--2----2--5--5--5--| 
|--0----0--3--3--3--|--0----0--3--3--3--|--0----0--3--3--3--| 


-------------------|-------------------|-------------------| 
-------------------|-------------------|-------------------| 
-------------------|-------------------|-------------------| 
-------------------|-------------------|-------------------| 
--7--7----8--8--0--|--2----2--5--5--5--|--2----2--5--5--5--| 
--5--0----6--6--0--|--0----0--3--3--3--|--0----0--3--3--3--| 


-------------------|-------------------| 
-------------------|-------------------| 
-------------------|-------------------| 
-------------------|-------------------| 
--2----2--5--5--5--|--4----0--4--4--0--| 
--0----0--3--3--3--|--2----0--2--2--0--| 

Tanto resguardarse 
Entre tus pelos de hierba 
Tengo a mis ojos aun en sangre 
A prender fuego y no mentir 

Wah-Wah 
|--7----------------|| 
|--8----------------|| 
|--9----------------|| 
|--9----------------|| 
|--7----------------|| 
|--0----------------|| 
{Aki empiezan a jugar con el Mi menor segun el ritmo de la canción} 

Dame un segundo 
Entre mis dedos icendiarios 
Seré tu alfombra de sal 
No confundas al mar 
Con ceguez me vas a oir 

|------------------------------|------------------------------| 
|------------------------------|------------------------------| 
|------------------------------|------------------------------| 
|--4--4--4-4-4-4-2--2--2-2-2-2-|------------------------------| 
|--2--2--2-2-2-2-0--0--0-0-0-0-|--5--5--5-5-5-5-5--5--5-5-5-5-| 
|------------------------------|--3--3--3-3-3-3-3--3--3-3-3-3-| 
No te van a herir                 Son luces no pestes! 

Opta por lo sano 
Ya si no es sano ya esta fuera 
Entre tu olor y mi fe todo huele a normal 
Con ceguez me vas a oir 

No te van herir 
|------------------------------|------------------------------| 
|------------------------------|------------------------------| 
|------------------------------|------------------------------| 
|--4--4--4-4-4-4-2--2--2-2-2-2-|------------------------------| 
|--2--2--2-2-2-2-0--0--0-0-0-0-|--5--5--5-5-5-5-5--5--5-5-5-5-| 
|------------------------------|--3--3--3-3-3-3-3--3--3-3-3-3-| 
                                 son luces no bélicas 


------------------------------|------------------------------| 
------------------------------|------------------------------| 
------------------------------|------------------------------| 
--4--4--4-4-4-4-2--2--2-2-2-2-|------------------------------| 
--2--2--2-2-2-2-0--0--0-0-0-0-|--5--5--5-5-5-5-5--5--5-5-5-5-| 
------------------------------|--3--3--3-3-3-3-3--3--3-3-3-3-| 
y.........                    pretenden saber donde ir 


------------------------------|------------------------------| 
------------------------------|------------------------------| 
------------------------------|------------------------------| 
--4--4--4-4-4-4-2--2--2-2-2-2-|----------------5--5--5-5-5-5-| 
--2--2--2-2-2-2-0--0--0-0-0-0-|--2--2--2-2-2-2-3--3--3-3-3-3-| 
------------------------------|--0--0--0-0-0-0---------------| 
iiiiiiiiiiiiiiiiiir            dentro de tí 


--------------------------|| 
--------------------------|| 
--------------------------|| 
--------------------------|| 
--7--7--7--7--7--7--7--7--|| 
--5--5--5--5--5--5--5--5--|| 
Oooh... 

No ilumina el viento           --- 
Grita tu voz por dentro        --- >  En sesión futura aquí hace 
No ilumina el viento           ---/   lo mismo k la intro 

|------------------------------|------------------------------| 
|·-----------------------------|------------------------------| 
|------------------------------|------------------------------| 
|--4--4--4-4-4-4-2--2--2-2-2-2-|------------------------------| 
|·-2--2--2-2-2-2-0--0--0-0-0-0-|--5--5--5-5-5-5-5--5--5-5-5-5-| 
|------------------------------|--3--3--3-3-3-3-3--3--3-3-3-3-| 
 Y...                               son luces no bélicas 

------------------------------|------------------------------| 
------------------------------|------------------------------| 
------------------------------|------------------------------| 
--4--4--4-4-4-4-2--2--2-2-2-2-|------------------------------| 
--2--2--2-2-2-2-0--0--0-0-0-0-|--5--5--5-5-5-5-5--5--5-5-5-5-| 
------------------------------|--3--3--3-3-3-3-3--3--3-3-3-3-| 
y.........                    pretenden saber donde ir 

                                                                 X2 
------------------------------|------------------------------|   | 
------------------------------|------------------------------|  ·| 
------------------------------|------------------------------|   | 
--4--4--4-4-4-4-2--2--2-2-2-2-|----------------5--5--5-5-5-5-|   | 
--2--2--2-2-2-2-0--0--0-0-0-0-|--2--2--2-2-2-2-3--3--3-3-3-3-|  ·| 
------------------------------|--0--0--0-0-0-0---------------|   | 
iiiiiiiiiiiiiiiiiir            dentro de tí 


--------------------------|| 
--------------------------|| 
--------------------------|| 
--------------------------|| 
--7--7--7--7--7--7--7--7--|| 
--5--5--5--5--5--5--5--5--|| 
Oooh... 

Wah-Wah {Se juega muy parecido a la vez anterior} 
|--7----------------|| 
|--8----------------|| 
|--9----------------|| 
|--9----------------|| 
|--7----------------|| 
|--0----------------||
    	
fixar
fixar inscrever-se

enviado porenviado por: carlluz
cifra enviadaCorrigida por: sem correções
logo top cifrasComente
ico música do artistaMúsicas deste artista
ico curtiuCurtiu?
ico destaqueDestaque
Petaxxon Comunicação Online

Cifras.com.br - Melhor e mais completo site de cifras e tablaturas do Brasil Mais de 1 milhão de acordes de músicas cadastradas desde 2003
As informações contidas no nosso site são colaborações de seus usuários e podem conter erros, sendo assim, não nos responsabilizamos sobre nenhuma destas.

close
menos
mais
close
Cor dos acordes:

Cor da letra:

close
Alinhar acordes a direita Alinhar acordes a esquerda Alinhar acordes em baixo Alinhar acordes no topo
close
  Mostrar todos os acordes Esconder acordes muito fáceis Esconder acordes fáceis Esconder acordes intermediários
redimensionar
glossário