Cifras e Tablaturas
Lucybell
Cifras Cancelar Versão de Impressão

Lucybell - Rojo Eterno

Tom: F#m

  			Lo 100to!!!!! Cometí un grave ERROR (push, push) en la  
otra tab, así que la mando de nuevo, ahora sí 100% 
correcta (Porsiaca, el error era en el paso para el coro: 
anoté la primera parte 1 cuerda más arriba!!!) Como 
sea, aquí les va la tab buena buena, pa' que no vean 
la otra. Eso era. Suerte!!!!!!!!!!!!!! 

Intro: 

E|---------------------------------------------| 
B|--------------------2-4/5p4-4----------------| 
G|----2-4-4/5p4---2-4-----------4/2-2----------| 
D|--4-----------4---------------------4/2-2----| 
A|---------------------------------------------| 
E|---------------------------------------------| 

E|--------------------------------------------------| 
B|--------------------2-4/5p4-4---------------------| 
G|----2-4-4/5p4---2-4-----------4/2-2-------2/1-1---| 
D|--4-----------4---------------------4/2-2---------| 
A|--------------------------------------------------| 
E|--------------------------------------------------| 


Me encerré, recreé el escondite de infancia 
clausuré de raíz como mi condición natural, natural 

E|--------------------------------------------------| 
B|--------------------2-4/5p4-4---------------------| 
G|----2-4-4/5p4---2-4-----------4/2-2-------2/1-1---| 
D|--4-----------4---------------------4/2-2---------| 
A|--------------------------------------------------| 
E|--------------------------------------------------| 

E|------------------------------7-7-4-4--------------| 
B|--------------------2-4/5p4-4---------5-5-4-4------| 
G|----2-4-4/5p4---2-4---------------------------4-4--| 
D|--4-----------4------------------------------------| 
A|---------------------------------------------------| 
E|---------------------------------------------------| 

E|------------------| 
B|------------------| 
G|--------2/1-1-----| 
D|--4/2-2-----------| 
A|------------------| 
E|------------------| 

E|------------------------------7-7-4-4--------------| 
B|--------------------2-4/5p4-4---------5-5-4-4------| 
G|----2-4-4/5p4---2-4---------------------------4-4--| 
D|--4-----------4------------------------------------| 
A|---------------------------------------------------| 
E|---------------------------------------------------| 

E|------------------| 
B|------------------| 
G|--------2/1-1-----| 
D|--4/2-2-----------| 
A|------------------| 
E|------------------| 

Decidí intuir recorriendo palacios 
desarmé por correr cada paso a seguir 
ataqué como rey que asesina con gracia 
no creí y no pensé como mi condición natural  

E|------------------------------7-7-4-4--------------| 
B|--------------------2-4/5p4-4---------5-5-4-4------| 
G|----2-4-4/5p4---2-4---------------------------4-4--| 
D|--4-----------4------------------------------------| 
A|---------------------------------------------------| 
E|---------------------------------------------------| 

E|------------------| 
B|------------------| 
G|--------2/1-1-----| 
D|--4/2-2-----------| 
A|------------------| 
E|------------------| 

E|------------------------------7-7-4-4--------------| 
B|--------------------2-4/5p4-4---------5-5-4-4------| 
G|----2-4-4/5p4---2-4---------------------------4-4--| 
D|--4-----------4------------------------------------| 
A|---------------------------------------------------| 
E|---------------------------------------------------| 

E|------------------------4-3/4-3/4-3/4-3/4-4-4------| 
B|--5-4h5-4h5-4h5-4h5-4h5-5-4/5-4/5-4/5-4/5-5-5------| 
G|--6-4h6-4h6-4h6-4h6-4h6----------------------------| 
D|---------------------------------------------------| 
A|---------------------------------------------------| 
E|---------------------------------------------------| 


CORO: 

  F#m           A 
Error va de mi mano 
  F#m           A 
escamas en tus dedos 
   F#m             A 
mi carne entre tus uñas 
   F#m           A 
mi crimen rojo eterno 
(aquí hay que tocar la segunda cuerda al aire) 
rojo eterno  

rojo enfermo 

rojo eterno  

rojo muerto 
              *Notas en paréntesis: rasgueo 
E|-------------------------------------------------| 
B|------------(0)(0)(0)(0)(0)(0)(0)(0)(0)(0)(0)----| 
G|------------(2)(2)(2)(2)(2)(2)(2)(2)(2)(2)(2)----| x 2 
D|----------2-(2)(2)(2)(2)(2)(2)(2)(2)(2)(2)(2)----| 
A|----4-2-0----------------------------------------|  
E|--2----------------------------------------------| 

E|-------------------------------------------------| 
B|--------------------(0)(0)(0)(0)(0)(0)(0)--------| 
G|------------0h2-2-2-(2)(2)(2)(2)(2)(2)(2)--------| x 2 
D|----------2---------(2)(2)(2)(2)(2)(2)(2)--------| 
A|----4-2-0----------------------------------------| 
E|--2----------------------------------------------| 

E|-------------------------------------------------| 
B|--------------------(0)(0)(0)(0)(0)(0)(0)--------| 
G|------------0h2-2-2-(2)(2)(2)(2)(2)(2)(2)--------| x 2 
D|----------2---------(2)(2)(2)(2)(2)(2)(2)--------| 
A|----4-2-0----------------------------------------| 
E|--2----------------------------------------------| 
    para de gritar 

E|------------------------------7-7-4-4--------------| 
B|--------------------2-4/5p4-4---------5-5-4-4------| 
G|----2-4-4/5p4---2-4---------------------------4-4--| 
D|--4-----------4------------------------------------| 
A|---------------------------------------------------| 
E|---------------------------------------------------| 

E|--------------------------| 
B|--------------------------| 
G|------------------2/1-1---| 
D|--4/2-2-2/4-4-4/2---------| 
A|--------------------------| 
E|--------------------------| 

E|------------------------------7-7-4-4--------------| 
B|--------------------2-4/5p4-4---------5-5-4-4------| 
G|----2-4-4/5p4---2-4---------------------------4-4--| 
D|--4-----------4------------------------------------| 
A|---------------------------------------------------| 
E|---------------------------------------------------| 

E|------------------------4-3/4-3/4-3/4-3/4-4-4------| 
B|--5-4h5-4h5-4h5-4h5-4h5-5-4/5-4/5-4/5-4/5-5-5------| 
G|--6-4h6-4h6-4h6-4h6-4h6----------------------------| 
D|---------------------------------------------------| 
A|---------------------------------------------------| 
E|---------------------------------------------------| 

 F#m           A 
Error va de mi mano 
  F#m           A 
escamas en tus dedos 
   F#m             A 
mi carne entre tus uñas 
   F#m           A 
mi crimen rojo eterno 
      F#m 
rojo eterno.  




Nota: en el coro, el A se toca en el 5º espacio, o sea: 

      A 
E|----5------| 
B|----5------| 
G|----6------| 
D|----7------| 
A|----7------| 
E|----5------|
    	
fixar
fixar inscrever-se

enviado porenviado por: carlluz
cifra enviadaCorrigida por: sem correções
logo top cifrasComente
ico música do artistaMúsicas deste artista
ico curtiuCurtiu?
ico destaqueDestaque
Petaxxon Comunicação Online

Cifras.com.br - Melhor e mais completo site de cifras e tablaturas do Brasil Mais de 1 milhão de acordes de músicas cadastradas desde 2003
As informações contidas no nosso site são colaborações de seus usuários e podem conter erros, sendo assim, não nos responsabilizamos sobre nenhuma destas.

close
menos
mais
close
Cor dos acordes:

Cor da letra:

close
Alinhar acordes a direita Alinhar acordes a esquerda Alinhar acordes em baixo Alinhar acordes no topo
close
  Mostrar todos os acordes Esconder acordes muito fáceis Esconder acordes fáceis Esconder acordes intermediários
redimensionar
glossário