Cifras e Tablaturas
Ludovico Einaudi

Ludovico Einaudi

Experience

Cifras Cancelar Versão de Impressão
cifras

Ludovico Einaudi - Experience

fixar na tela  
Exibindo: vídeo-aula ver clipes redimensionar
  
Intro 
e|-----------------|-----------------|-----------------|----------------------| 
B|-2---2---3---2---|-2---2---3---2---|-----------------|-2----0---2---3-------| 
G|-----2---2---2---|-----2---2---2---|-6---6---7---6---|------2---2---2-------| 
D|-------4---4---4-|---2---2---2---2-|---6---6---6---6-|----2---2---2---2-----| 
A|---4-------------|-0---------------|-4-------4-------|-0--------------------| 
E|-2---------------|-----------------|-----------------|----------------------| 

e|-----------------|-----------------------|-----------------|----------------| 
B|-2---2---3---2---|---0--2---2---3---2----|-----------------|-2----0---------| 
G|-----2---2---2---|----------2---2---2----|--6---6---7---6--|------2----2---4| 
D|-------4---4---4-|--------2---2---2---2--|----6---6---6---6|----2---2----2--| 
A|---4-------------|------0----------------|--4-------4------|-0--------------| 
E|-2---------------|-----------------------|-----------------|----------------| 

Main Body 1 
e|------------------------------|---------------------------------------------| 
B|-------2-------2-------2------|--------2-------2-------2--------------------| 
G|-2---2---2---2---2---2---2----|--2---2---2---2---2---2---2------------------| 
D|------------------------------|----2-------2-------2-------2----------------| 
A|---4-------4-------4-------4--|--0------------------------------------------| 
E|-2----------------------------|---------------------------------------------| 

e|--------------------------------|-------------------------------------------| 
B|--------------------------------|--2-------0-------2-------3----------------| 
G|-6-------6-------6--------6-----|----2---2---2---2---2---2---2--------------| 
D|-------6---6---6---6----6---6---|------2-------2-------2-------2------------| 
A|-4--4--------4--------4-------4-|--0----------------------------------------| 
E|--------------------------------|-------------------------------------------| 

e|------------------------------|---------------------------------------------| 
B|-------2-------2-------2------|--------2-------2-------2--------------------| 
G|-2---2---2---2---2---2---2----|--2---2---2---2---2---2---2------------------| 
D|------------------------------|----2-------2-------2-------2----------------| 
A|---4-------4-------4-------4--|--0------------------------------------------| 
E|-2----------------------------|---------------------------------------------| 

e|--------------------------------|-------------------------------------------| 
B|--------------------------------|--2-------0-------2-------3----------------| 
G|-6-------6-------6--------6-----|----2---2---2---2---2---2---2--------------| 
D|-------6---6---6---6----6---6---|------2-------2-------2-------2------------| 
A|-4--4--------4--------4-------4-|--0----------------------------------------| 
E|--------------------------------|-------------------------------------------| 

Main Body 2  
e|-----------------------------------|------------------------------------------------| 
B|------2-------2-------2-------2----|----------2-------2-------2------2--------------| 
G|--2-------2-------2-------2--------|----2---------2-------2------2------------------| 
D|-----------------------------------|-------2----2---2---2---2--2---2---2------------| 
A|----4---4---4---4---4---4---4----4-|----0-------------------------------------------| 
E|--2--------------------------------|------------------------------------------------| 

e|-------------------------------------------|----------------------------------------| 
B|-----2-------2--------2--------2-----------|-------2-------2--------2--------2------| 
G|-2p1-----2p1------2p1------2p1-------------|-----------2--------2-------2-----------| 
D|-------------------------------------------|---0-0---0---0---0----0---0----0---0----| 
A|-0-----0--------0-------0--------0---------|----------------------------------------| 
E|-------------------------------------------|----------------------------------------| 

e|-----------------------------------|------------------------------------------------| 
B|------2-------2-------2-------2----|----------2-------2-------2------2--------------| 
G|--2-------2-------2-------2--------|----2---------2-------2------2------------------| 
D|-----------------------------------|-------2----2---2---2---2--2---2---2------------| 
A|----4---4---4---4---4---4---4----4-|----0-------------------------------------------| 
E|--2--------------------------------|------------------------------------------------| 

e|-------------------------------------------|----------------------------------------| 
B|------2------2--------2--------2-----------|-------2-------2--------2-------2-2-3-2-| 
G|-2p1------2p1------2p1------2p1------------|-----------2-------2--------2-----------| 
D|-------------------------------------------|---0-0---0---0---0----0---0----0--------| 
A|-0------0--------0-------0--------0--------|----------------------------------------| 
E|-------------------------------------------|----------------------------------------| 

Main Body 3  
(Tempo increases drastically from intro) 
e|-----------------|-----------------|----------------|---------------------------------| 
B|-2---2---3---2---|--2---2---3---2--|----------------|--2---0---2---3------------------| 
G|-----2---2---2---|------2---2---2--|-6---6---7---6--|------2---2---2------------------| 
D|-------4---4---4-|----2---2---2--2-|---6---6---6----|----2---2---2---2----------------| 
A|---4-------------|--0--------------|-4-------4------|--0------------------------------| 
E|-2---------------|-----------------|----------------|---------------------------------| 

Outro 1 
e|-9----9----10-----9----|--9------9---10---9----|--9-----9---10---9-------------------| 
B|-----------------------|-----------------------|-------------------------------------| 
G|--------11----------11-|-----------------------|-------------------------------------| 
D|---11----------11------|------7----7----7---7--|-------------------------------------| 
A|-9---------------------|--0--------------------|-------------------------------------| 
E|-----------------------|-----------------------|--9---9---9----9---9-----------------| 

e|-9--7--5--------------|-------------------------------------------------------------| 
B|----------12----------|-------------------------------------------------------------| 
G|----------------------|-------------------------------------------------------------| 
D|----------------------|---------4---2-----------------------------------------------| 
A|-0--------------------|-----------------4---2---------------------------------------| 
E|----------------------|-----------------------4---2---------------------------------| 
  
Chord Progression/Strumming Strumming Pattern: (Strum Down = D, Strum Up = U)  
  
DUD followed by a series of UDU strokes  

The tab below shows the chord shapes to use for this section 
(Dead notes not necessary depending on strumming technique) 

(Use the video for strumming reference) 
e|--2--2--2---|--0-0-0---|--x-x-x---|--0-0-0------| 
B|--2--3--2---|--2-3-2---|--x-x-x---|--2-3-2------| 
G|--2--2--2---|--2-2-2---|--6-7-6---|--2-2-2------| 
D|--2--2--2---|--2-2-2---|--6-6-6---|--2-2-2------| 
A|--4--4--4---|--x-x-x---|--4-4-6---|--x-x-x------| 
E|--2--2--2---|--x-x-x---|--x-x-x---|--x-x-x------| 

(Second Chord Progression slows down in tempo near the end and leads into Outro 2) 
e|--2--2--2---|--0-0-0---|--x-x-x---------------| 
B|--2--3--2---|--2-3-2---|--x-x-x---------------| 
G|--2--2--2---|--2-2-2---|--6-7-6---------------| 
D|--2--2--2---|--2-2-2---|--6-6-6---------------| 
A|--4--4--4---|--x-x-x---|--4-4-6---------------| 
E|--2--2--2---|--x-x-x---|--x-x-x---------------| 

Outro 2  
(Slow Tempo) 
e|-----------------------------|----------------------------------------------| 
B|-2---2----2---3---3---2---2--|---2---2----2---3---3---2---2-----------------| 
G|---2----2---2---2---2---2----|-----2----2---2---2---2---2---2---------------| 
D|-0---------------------------|---0------------------------------------------| 
A|-----------------------------|----------------------------------------------| 
E|-----------------------------|----------------------------------------------| 



************************************ 

| x   Dead note 
| p   Pull-off 

************************************ 
  

cifra enviadasem correções
enviado porenviada por:aleffederico
top 5 | ludovico einaudi
top música clássica
Outras músicas do artista letras do(a) Ludovico Einaudi
2.
Fly
Top cifras »Top artistas »
Petaxxon Comunicação Online
Cifras.com.br - Melhor e mais completo site de cifras e tablaturas do Brasil
Mais de 1 milhão de acordes de músicas cadastradas desde 2003
As informações contidas no nosso site são colaborações de seus usuários e podem conter erros, sendo assim, não nos responsabilizamos sobre nenhuma destas.
close
menos
mais
close
Cor dos acordes:

Cor da letra:

 

save
close
close
 
redimensionar