Cifras e Tablaturas
Luiz Bonfá

Luiz Bonfá

Manhã de Carnaval Tablatura Verificada

Cifras Cancelar Versão de Impressão
cifras

Luiz Bonfá - Manhã de Carnaval

fixar na tela  
Exibindo: vídeo-aula ver clipes redimensionar
  
e|-------8-----------7--5---5------------4--7\----0---------------| 
B|-5---------5----5-------------6------------------------1----1---| 
G|---------5----5-------------7---7-------------------2----2------| 
D|------------------------0---------------------------------------| 
A|----0----------------------------------------0------------------| 
E|-----------------------------------0----------------------------| 



e|------8-------7--5-----5--------3--7\-----3---------------------| 
B|-5---------6-----------------3------------------0---------------| 
G|--------5-----------------4------------------0------------------| 
D|----------------------------------------------------------------| 
A|---5-----------------------------------3------------------------| 
E|--------------------3-------------------------------------------| 



e|-0--1--3----5---------------------------------------------------| 
B|----------------------------------------------------------------| 
G|---------------7--7---------------------------------------------| 
D|----------0----------0------------------------------------------| 
A|----------------------------------------------------------------| 
E|---------------------3------------------------------------------| 



e|---0--1----3----------------------------------------------------| 
B|-3------------1-----1--1----------------------------------------| 
G|-----------------0-----2----------------------------------------| 
D|-----------------------2----------------------------------------| 
A|---------3------------------------------------------------------| 
E|-----------------------1----------------------------------------| 



e|--------0----1--------------------------------------------------| 
B|--1--3----------0--0--------------------------------------------| 
G|----------------------------------------------------------------| 
D|----------------------------------------------------------------| 
A|-----------2----------------------------------------------------| 
E|-----------------------0----------------------------------------| 




e|-------------0--------------------------------------------------| 
B|-0--1--3--------------------------------------------------------| 
G|----------------5-----5-----7-----------------------------------| 
D|----------------5-----5-----6-----------------------------------| 
A|----------0--------0--------7-----------------------------------| 
E|-------------------------0--------------------------------------| 



e|------6------------5----------------5---------------------------| 
B|-5---------5----5-----8--8--6--5--------6---------6------6---6--| 
G|--------6----6------------------------7---7--6--6---6--5---5---4| 
D|----5-----------------------------0-----------------------------| 
A|----------------------------------------------------------------| 
E|----------------------------------------------------------------| 



e|---------------------0--1----7----------------------------------| 
B|---3-----3--------3-------------9-------------------------------| 
G|------2-----2-------------------7-------------------------------| 
D|-0--------------------------------------------------------------| 
A|---------------3------------------------------------------------| 
E|---------------------------7------------------------------------| 



e|--------------0---------5---------------------------------------| 
B|---1--------3---------5-----------------------------------------| 
G|---------2----------5-------------------------------------------| 
D|------2---------------------------------------------------------| 
A|----------------0-----------------------------------------------| 
E|-1--------------------------------------------------------------| 



e|-4-----0--0--4--6-----5-----------------------------------------| 
B|---------------------5------------------------------------------| 
G|--------------------5-------------------------------------------| 
D|----------------------------------------------------------------| 
A|------------------0---------------------------------------------| 
E|----0-----------------------------------------------------------| 



e|-----7----8--10--7----6-----7----8--10--8---7----7---8--10--8---| 
B|-10---------------------10--------------------10----------------| 
G|----------------------------------------------------------------| 
D|-------0-----------------------0-------------------0------------| 
A|--------------------0---------------------0---------------------| 
E|----------------------------------------------------------------| 



e|----7---------------5-------------------------------------------| 
B|-------10--8------5---------------------------------------------| 
G|----------------5-----------------------------------------------| 
D|----------------------------------------------------------------| 
A|--------------0-------------------------------------------------| 
E|-0--------------------------------------------------------------|
  

top 5 | luiz bonfá
top mpb
Outras músicas do artista letras do(a) Luiz Bonfá
Top cifras »Top artistas »
Petaxxon Comunicação Online
Cifras.com.br - Melhor e mais completo site de cifras e tablaturas do Brasil
Mais de 1 milhão de acordes de músicas cadastradas desde 2003
As informações contidas no nosso site são colaborações de seus usuários e podem conter erros, sendo assim, não nos responsabilizamos sobre nenhuma destas.
close
menos
mais
close
Cor dos acordes:

Cor da letra:

 

save
close
close
 
redimensionar