Cifras e Tablaturas
Magic!

Magic!

No Regrets

Cifras Cancelar Versão de Impressão
cifras

Magic! - No Regrets

fixar na tela  
Exibindo: vídeo-aula ver clipes redimensionar

Tom:

  Intro 

e|----------------------------------------------------7-------0----------------------| 
B|------5---------------8--------------7---------------------------------------------| 
G|--------0---------------9--------------7----------7-------0------------------------| 
D|----2--------------9--------------7------7-----5--------4--------------------------| 
A|--3-------3------7--------7-----5--------------------------------------------------| 
E|-----------------------------------------------------------------------------------| 


Chorus 

The world isn't over yet 
We've still got a chance to place our bets 
e|-----------------------------------------------------------------------------------| 
B|-----5------------8-----------7-----------3----------------------------------------| 
G|-------0------------9-----------7-----------0--------------------------------------| 
D|---2------------9-----------7-----7-----0-----0------------------------------------| 
A|-3-------3----7-------7---5-----------2--------------------------------------------| 
E|-----------------------------------------------------------------------------------| 

We both made a little mess 
Nothing our two hearts can't put back 
e|----------------------------------------------------7-------0----------------------| 
B|------5---------------8--------------7---------------------------------------------| 
G|--------0---------------9--------------7----------7-------0------------------------| 
D|----2--------------9--------------7------7-----5--------4--------------------------| 
A|--3-------3------7--------7-----5--------------------------------------------------| 
E|-----------------------------------------------------------------------------------| 

I'll never love you less 
Don't let your worries second guess 
e|-----------------------------------------------------------------------------------| 
B|-----5------------8-----------7-----------3----------------------------------------| 
G|-------0------------9-----------7-----------0--------------------------------------| 
D|---2------------9-----------7-----7-----0-----0------------------------------------| 
A|-3-------3----7-------7---5-----------2--------------------------------------------| 
E|-----------------------------------------------------------------------------------| 

Let's start over fresh, living a life with no regrets 
e|----------------------------------------------------7-------0----------------------| 
B|------5---------------8--------------7---------------------------------------------| 
G|--------0---------------9--------------7----------7-------0------------------------| 
D|----2--------------9--------------7------7-----5--------4--------------------------| 
A|--3-------3------7--------7-----5--------------------------------------------------| 
E|-----------------------------------------------------------------------------------| 

Don't let your worries second guess 
e|-----------------------------------------------------------------------------------| 
B|-----5------------8-----------7-----------3----------------------------------------| 
G|-------0------------9-----------7-----------0--------------------------------------| 
D|---2------------9-----------7-----7-----0-----0------------------------------------| 
A|-3-------3----7-------7---5-----------2--------------------------------------------| 
E|-----------------------------------------------------------------------------------| 

e|------------------------------------------------------| 
B|-----5----------8-----------7-------------------------| 
G|-------0----------9-----------7------------0----------| 
D|---2----------9----------7------7----0h2h4---4p2p0----| 
A|-3-------3--7-------7--5---------------------------0--| 
E|------------------------------------------------------| 


 verse 1 

I've got my issues, I admit that 
e|-----------------------------------------------------------------------------------| 
B|-----5------------8-----------7-----------3----------------------------------------| 
G|-------0------------9-----------7-----------0--------------------------------------| 
D|---2------------9-----------7-----7-----0-----0------------------------------------| 
A|-3-------3----7-------7---5-----------2--------------------------------------------| 
E|-----------------------------------------------------------------------------------| 

You got some things that hold you back 
e|----------------------------------------------------7-------0----------------------| 
B|------5---------------8--------------7---------------------------------------------| 
G|--------0---------------9--------------7----------7-------0------------------------| 
D|----2--------------9--------------7------7-----5--------4--------------------------| 
A|--3-------3------7--------7-----5--------------------------------------------------| 
E|-----------------------------------------------------------------------------------| 

But we are acting like we're children 
e|-----------------------------------------------------------------------------------| 
B|-----5------------8-----------7-----------3----------------------------------------| 
G|-------0------------9-----------7-----------0--------------------------------------| 
D|---2------------9-----------7-----7-----0-----0------------------------------------| 
A|-3-------3----7-------7---5-----------2--------------------------------------------| 
E|-----------------------------------------------------------------------------------| 

Looking to blame for what we  lack                        
e|----------------------------------------------------7-------0----------------------| 
B|------5---------------8--------------7---------------------------------------------| 
G|--------0---------------9--------------7----------7-------0------------------------| 
D|----2--------------9--------------7------7-----5--------4--------------------------| 
A|--3-------3------7--------7-----5--------------------------------------------------| 
E|-----------------------------------------------------------------------------------| 


Pre-Chorus 

 Before welose everything we have tomorrow 
e|-----------------------------------------------------------------------------------| 
B|-----5------------8-----------7-----------3----------------------------------------| 
G|-------0------------9-----------7-----------0--------------------------------------| 
D|---2------------9-----------7-----7-----0-----0------------------------------------| 
A|-3-------3----7-------7---5-----------2--------------------------------------------| 
E|-----------------------------------------------------------------------------------| 

 Can we forget what went wrong yesterday,                   darling 
e|-----------------------------------------------------------------------------------| 
B|------5---------------8--------------7---------------------------------------------| 
G|--------0---------------9--------------7-------------------------------------------| 
D|----2--------------9--------------7------7-----------------------------------------| 
A|--3-------3------7--------7-----5--------------------------------------------------| 
E|-----------------------------------------------------------------------------------| 




************************************ 

| h  Hammer-on 
| p  Pull-off 

************************************ 
  

top 5 | magic!
top reggae
Outras músicas do artista letras do(a) Magic!
1.
Rude
Top cifras »Top artistas »
Petaxxon Comunicação Online
Cifras.com.br - Melhor e mais completo site de cifras e tablaturas do Brasil
Mais de 1 milhão de acordes de músicas cadastradas desde 2003
As informações contidas no nosso site são colaborações de seus usuários e podem conter erros, sendo assim, não nos responsabilizamos sobre nenhuma destas.
close
menos
mais
close
Cor dos acordes:

Cor da letra:

 

save
close
close
 
redimensionar