Cifras e Tablaturas
Makeout

Makeout

Blast Off

Cifras Cancelar Versão de Impressão

Makeout - Blast Off

Tom: D

  			Intro 

Guitar 2  
e|-----------------------------------------------------------------------------------------------------| 
B|---------------------------------------------------------------------------3---4---3-------3---4---3-| 
G|-------7---8---7---8---7---8---7-8-------7---8---7---8---7---8---7-8---3---------------3-------------| 
D|---8---------------------------------8---------------------------------------------------------------| 
A|-6---6---6---6---6---6---6---6---------------------------------------3---3---3---3---1---1---1---1---| 
D|-----------------------------------6---6---6---6---6---6---6---6-------------------------------------| 

e|-------------------------------------------------| 
B|-------------------------------------------------| 
G|-------7---8---7---8---7---8---7-8---------------| 
D|---8---------------------------------------------| 
A|-------------------------------------------------| 
D|-6---6---6---6---6---6---6---6-------------------| 

Guitar 1 enters 
e|----------------------------------------------- -----------------------------------------------------| 
B|-----------------------------------------------------------------------------------------------------| 
G|-----------------------------------------------------------------------5-------3---------------------| 
D|------(silence)------------6-6-6-1------6--5--3--1-6-------6--5--3--1--5-5--x7-3-3--x4-3/5~-6--------| 
A|---------------------------6-6-6-1-1-x7-8--6--5--3-6-6--x7-8--6--5--3--3-3-----1-1----------6--x16---| 
D|---------------------------6-6-6-1-1---------------6-6--------------------------------------6--------| 
                                     *                 *                   *       *          *graually lift 
                                                                                                palm mute 
PreChorus (guitar 2 only) 
e|---------------------------------------------------| 
B|---------------------------------------------------| 
G|-5-5-5----3-3-3-----------5-5-5----3-3-3-----------| 
D|-5-5-5----3-3-3----6------5-5-5----3-3-3----6------| 
A|-3-3-3----1-1-1----6--x16-3-3-3----1-1-1----6--x12-| 
D|-------------------6------------------------6------| 
                                              *gradually lift palm mute 
Chorus 

Guitar 1 
e|--------------------------2x-| 
B|-----------------------------| 
G|--------3--------------------| 
D|-1------3--x16-5------6------| 
A|-1--x16-1------6--x16-6--x16-| 
D|-1-------------5------6------| 

Guitar 2 
e|-------------------------------------------------------------------|----1.-|----2.-|| 
B|-------------------------------------------------------------------|-------|-------|| 
G|-12-12-12-10-12-12-12-10-12-12-12-10-12-12-12-10-8-8-8-8-7-8-8-8-7-|-10----|-8-----|| 
D|-------------------------------------------------------------------|----x7-|----x7-|| 
A|-10-10-10-8--10-10-10-8--10-10-10-8--10-10-10-8--6-6-6-6-5-6-6-6-5-|-8-----|-6-----|| 
D|-------------------------------------------------------------------|-------|-------|| 

Verse2 

Guitar 1 
e|---------------------------------------------------------------------| 
B|---------------------------------------------------------------------| 
G|---------------------------------------5-------3---------------------| 
D|-1------6--5--3--1-6-------6--5--3--1--5-5--x7-3-3--x4-3/5~-6--------| 
A|-1-1-x7-8--6--5--3-6-6--x7-8--6--5--3--3-3-----1-1----------6--x16---| 
D|-1-1---------------6-6--------------------------------------6--------| 
     *                 *                   *       *          *gradually lift palm mute 
Guitar 2 
e|---------------------------------------|--------------------|-----------------------------------------| 
B|---------------------------------------|-----8---8--8--8--8-|-----8---------6----------8--------------| 
G|---------------------------------------|-7/8-----8--8--8--8-|-7/8---8---7/8---8----7/8---8----8-8-8-8-| 
D|---------------------------------------|--------------------|-----------------------------------------| 
A|-----------------------5/6~------------|-5/6----------------|-5/6-------5/6--------5/6--------6-6-6-6-| 
D|---------------------------------------|-----------------2x-|-----------------------------------------| 
  
PreChorus 2 

Guitar 1 
e|-------------------------------------------8~----| 
B|-------------------------------------------------| 
G|-8-8-8----7-7-7----5------8-8-8----7-7-7---------| 
D|----------------------x16------------------------| 
A|-6-6-6----5-5-5----3------6-6-6----5-5-5---------| 
D|-------------------------------------------------| 

Guitar 2 
e|---------------------------------------------------| 
B|---------------------------------------------------| 
G|-5-5-5----3-3-3-----------5-5-5----3-3-3----8------| 
D|-5-5-5----3-3-3----6------5-5-5----3-3-3----6------| 
A|-3-3-3----1-1-1----6--x16-3-3-3----1-1-1----6--x12-| 
D|-------------------6------------------------6------| 
                                              *gradually lift palm mute 
Bridge 

Guitar 1 
e|-------------------------------2x-| 
B|----------------------------------| 
G|-5-------------5-----3------------| 
D|-5--x16-6------5--x8-3--x8-6------| 
A|-3------6--x16-3-----1-----6--x16-| 
D|--------6------------------6------| 

e|--------------------------------------------------------------------------|-----------1.-|-----------2.-|| 
B|--------------------------------------------------------------------------|--------------|--------------|| 
G|-5-5-5-5-8-8-8-8-10101010-12-12-12-12-8------8-----7-----8-8-8-8-10101010-|-12-----15----|-17-----15----|| 
D|-----------------------------------------x16----x8----x8------------------|-----x4----x4-|-----x4----x4-|| 
A|-3-3-3-3-6-6-6-6-8-8-8-8--10-10-10-10-6------6-----5-----6-6-6-6-8-8-8-8--|-10-----13----|-15-----13----|| 
D|--------------------------------------------------------------------------|--------------|--------------|| 

Final Chorus 

Guitar 1 
e|-6---------------------------|--------------------------2x-| 
B|-----------------------------|-----------------------------| 
G|-8---------------------------|--------3--------------------| 
D|-8--x16-8------5------6------|-1------3--x16-5------6------| 
A|-6------8--x16-6--x16-6--x16-|-1--x16-1------6--x16-6--x16-| 
D|--------8------5------6------|-1-------------5------6------| 

Guitar 2 
e|---------------------------------------------------------------------------------------|| 
B|---------------------------------------------------------------------------------------|| 
G|---------------12-12-12-10-12-12-12-10-12-12-12-10-12-12-12-10-8-8-8-8-7-8-8-7-8-------|| 
D|---(silence)-----------------------------------------------------------------------x16-|| 
A|---------------10-10-10-8--10-10-10-8--10-10-10-8--10-10-10-8--6-6-6-6-5-6-6-5-6-------|| 
D|---------------------------------------------------------------------------------------|| 

e|-------------------------------------------------------------------|-----1.-|----2.-|| 
B|-------------------------------------------------------------------|--------|-------|| 
G|-12-12-12-10-12-12-12-10-12-12-12-10-12-12-12-10-8-8-8-8-7-8-8-8-7-|-10-----|-8-----|| 
D|-------------------------------------------------------------------|-----x7-|----x7-|| 
A|-10-10-10-8--10-10-10-8--10-10-10-8--10-10-10-8--6-6-6-6-5-6-6-6-5-|-8------|-6-----|| 
D|-------------------------------------------------------------------|--------|-------|| 

Outro 

Guitar 1 
e|--------------------------2x-|-----------------------| 
B|-----------------------------|-----------------------| 
G|--------3--------------------|-5-5-5----3-3-3----8~--| 
D|-1------3--x16-5------6------|-5-5-5----3-3-3----6~--| 
A|-1--x16-1------6--x16-6--x16-|-3-3-3----1-1-1----6~--| 
D|-1-------------5------6------|-------------------6~--| 

Guitar 2 
e|-------------------------------------------------------------------|----1.-|----2.-||----------------------|| 
B|-------------------------------------------------------------------|-------|-------||----------------------|| 
G|-12-12-12-10-12-12-12-10-12-12-12-10-12-12-12-10-8-8-8-8-7-8-8-8-7-|-10----|-8-----||-8-8-8----7-7-7----5~-|| 
D|-------------------------------------------------------------------|----x7-|----x7-||----------------------|| 
A|-10-10-10-8--10-10-10-8--10-10-10-8--10-10-10-8--6-6-6-6-5-6-6-6-5-|-8-----|-6-----||-6-6-6----5-5-5----3~-|| 
D|-------------------------------------------------------------------|-------|-------||----------------------|| 
_____________________________________________________________ 
~ - let note ring 
/ or \ - slide 
* - palm mute 
    	
fixar
fixar inscrever-se

enviado porenviado por: marcnagel
cifra enviadaCorrigida por: sem correções
logo top cifrasComente
ico música do artistaMúsicas deste artista
ico curtiuCurtiu?
ico destaqueDestaque
Petaxxon Comunicação Online

Cifras.com.br - Melhor e mais completo site de cifras e tablaturas do Brasil Mais de 1 milhão de acordes de músicas cadastradas desde 2003
As informações contidas no nosso site são colaborações de seus usuários e podem conter erros, sendo assim, não nos responsabilizamos sobre nenhuma destas.

close
menos
mais
close
Cor dos acordes:

Cor da letra:

close
Alinhar acordes a direita Alinhar acordes a esquerda Alinhar acordes em baixo Alinhar acordes no topo
close
  Mostrar todos os acordes Esconder acordes muito fáceis Esconder acordes fáceis Esconder acordes intermediários
redimensionar
glossário