Cifras e Tablaturas
Malefice

Malefice

Time

Cifras Cancelar Versão de Impressão Print

Malefice - Time

Tom: A

  • 0:00 / 0:00
  			

D|-------------------------------------------------------------------------------| 
A|-------------------------------------------------------------------------------| 
F|-------------------------------------------------------------------------------| 
C|-------------------------------------------------------------------------------| 
G|--2-------------------0-------------------2-------------------0----------------| 
D|------------2-------------------0-------------------2-------------------0------| 

B)Guitar 2 (clean): 

D|-------5---------4---------4---------7---------5---------9---------4---------7-| 
A|--3---------2---------2---------5---------3---------2---------2---------5------| 
F|-------------------------------------------------------------------------------| 
C|-------------------------------------------------------------------------------| 
G|-------------------------------------------------------------------------------| 
D|-------------------------------------------------------------------------------| 

C)Guitar 3 (clean, distortion fades in somehow): 

D|--7p5h7---7--7--7----7p5h7---7--7--7-------------------------------------------| 
A|-------------------------------------------------------------------------------| 
F|-------------------------------------------------------------------------------| 
C|-------------------------------------------------------------------------------| 
G|-------------------------------------------------------------------------------| 
D|-------------------------------------------------------------------------------| 

D)Guitar 1 (distortion: 

D|-------------------------------------------------------------------------------| 
A|-------------------------------------------------------------------------------| 
F|--4~------------------2~-------------------------------------------------------| 
C|--4~--------4~--------2~--------2-2-2-2-2-2-2-2--------------------------------| 
G|--2~--------4~--------0~--------2-2-2-2-2-2-2-2--------------------------------| 
D|------------2~------------------0-0-0-0-0-0-0-0--------------------------------| 
P.M.                                . . . . . . . 

E)Guitar 2 (distortion): 

D|----------9br~--------------------------------7br~-----------------------------| 
A|--7br~---------7br~-7br~----9br~-------------------5br~-5br~----7br~-----------| 
F|---------------------------------6br~-6br~---------------------------4br~------| 
C|-------------------------------------------------------------------------------| 
G|-------------------------------------------------------------------------------| 
D|-------------------------------------------------------------------------------| 

 
    	

enviado porenviado por: andrsouza
cifra enviadaCorrigida por: sem correções
logo top cifrasComente
ico música do artistaMúsicas deste artista
ico curtiuCurtiu?
ico destaqueDestaque
Petaxxon Comunicação Online

Cifras.com.br - Melhor e mais completo site de cifras e tablaturas do Brasil Mais de 1 milhão de acordes de músicas cadastradas desde 2003
As informações contidas no nosso site são colaborações de seus usuários e podem conter erros, sendo assim, não nos responsabilizamos sobre nenhuma destas.

close
menos
mais
close
Cor dos acordes:

Cor da letra:

close
Alinhar acordes a direita Alinhar acordes a esquerda Alinhar acordes em baixo Alinhar acordes no topo
close
  Mostrar todos os acordes Esconder acordes muito fáceis Esconder acordes fáceis Esconder acordes intermediários
redimensionar
glossário