Cifras e Tablaturas
Man Overboard

Man Overboard

Now That You're Home

Cifras Cancelar Versão de Impressão

Man Overboard - Now That You're Home

Tom: A#

  			

d#|---------------------------------------------------------------------------| 
A#|---------------------------------------------------------------------------| 
F#|-----------------------------------------------------------7-7-7-7---------| 
C#|-7---7---7-7-7-7----7-7----7-7-7-7-4---4---4-4-4-4---4-4---7-7-7-7---------| 
G#|-x---x---x-x-x-x----x-x----x-x-x-x-x---x---x-x-x-x---x-x---5-5-5-5---------| 
D#|-5---5---5-5-5-5----5-5----5-5-5-5-2---2---2-2-2-2---2-2-------------------| 

d#|---------------------------------------------------------------------------| 
A#|---------------------------------------------------------------------------| 
F#|---------------------------------------------------------------------------| 
C#|-7---7---7-7-7-7----7-7----7-7-7-7-4---4---4-4-4-4---4-4---4-4-4-4---------| 
G#|-7---7---7-7-7-7----7-7----7-7-7-7-4---4---4-4-4-4---4-4---4-4-4-4---------| 
D#|-5---5---5-5-5-5----5-5----5-5-5-5-2---2---2-2-2-2---2-2---2-2-2-2---------| 

d#|---------------------------------------------------------------------------| 
A#|---------------------------------------------------------------------------| 
F#|-7---7---7-7-7---9---9---9-9-9---------------------------------------------| 
C#|-7---7---7-7-7---9---9---9-9-9---4---4---4-4-4---7-7---7-7-7-7-------------| 
G#|-5---5---5-5-5---7---7---7-7-7---4---4---4-4-4---7-7---7-7-7-7-------------| 
D#|-5---5---5-5-5---7---7---7-7-7---2---2---2-2-2---5-5---5-5-5-5-------------| 

d#|---------------------------------------------------------------------------| 
A#|---------------------------------------------------------------------------| 
F#|-7---7---7-7-7-9---9---9---9-9---------------------------------------------| 
C#|-7---7---7-7-7-9---9---9---9-9----------*Drums playing*--------------------| 
G#|-5---5---5-5-5-7---7---7---7-7---------------------------------------------| 
D#|-5---5---5-5-5-7---7---7---7-7---------------------------------------------| 


Chorus / "Let it go back...": 

d#|---------------------------------------------------------------------------| 
A#|---------------------------------------------------------------------------| 
F#|---------------------------------6-6-6-6-6-6-6-6-7-7-7-7-7-7-7-7-----------| 
C#|-7-7-7-7-7-7-7-7-4-4-4-4-4-4-4-4-6-6-6-6-6-6-6-6-7-7-7-7-7-7-7-7-----------| 
G#|-7-7-7-7-7-7-7-7-4-4-4-4-4-4-4-4-4-4-4-4-4-4-4-4-5-5-5-5-5-5-5-5-----------| 
D#|-5-5-5-5-5-5-5-5-2-2-2-2-2-2-2-2-4-4-4-4-4-4-4-4-5-5-5-5-5-5-5-5-----------| 
 -PM|--------------------------------------------------------------| 

d#|---------------------------------------------------------------------------| 
A#|---------------------------------------------------------------------------| 
F#|---------------------------------6-6-6-6-6-6-6-6-7-7-7-7-7-7-7-7-----------| 
C#|-7-7-7-7-7-7-7-7-4-4-4-4-4-4-4-4-6-6-6-6-6-6-6-6-7-7-7-7-7-7-7-7-----------| 
G#|-7-7-7-7-7-7-7-7-4-4-4-4-4-4-4-4-4-4-4-4-4-4-4-4-5-5-5-5-5-5-5-5-----------| 
D#|-5-5-5-5-5-5-5-5-2-2-2-2-2-2-2-2-4-4-4-4-4-4-4-4-5-5-5-5-5-5-5-5-----------| 
 -PM|--------------------------------------------------------------| 

"Find your way back...":  

d#|---------------------------------------------------------------------------| 
A#|---------------------------------------------------------------------------| 
F#|---------------------------------7-7-7-7-7-7-7-7-7-7-7-7-7-7-7-7-----------| 
C#|-7-7-7-7-7-7-7-7-4-4-4-4-4-4-4-4-7-7-7-7-7-7-7-7-7-7-7-7-7-7-7-7-----------| 
G#|-7-7-7-7-7-7-7-7-4-4-4-4-4-4-4-4-5-5-5-5-5-5-5-5-5-5-5-5-5-5-5-5-----------| 
D#|-5-5-5-5-5-5-5-5-2-2-2-2-2-2-2-2-5-5-5-5-5-5-5-5-5-5-5-5-5-5-5-5-----------| 

d#|---------------------------------------------------------------------------| 
A#|---------------------------------------------------------------------------| 
F#|---------------------------------6-6-6-6-6-6-6-6-7-7-7-7-7-7-7-7-----------| 
C#|-7-7-7-7-7-7-7-7-4-4-4-4-4-4-4-4-6-6-6-6-6-6-6-6-7-7-7-7-7-7-7-7-----------| 
G#|-7-7-7-7-7-7-7-7-4-4-4-4-4-4-4-4-4-4-4-4-4-4-4-4-5-5-5-5-5-5-5-5-----------| 
D#|-5-5-5-5-5-5-5-5-2-2-2-2-2-2-2-2-4-4-4-4-4-4-4-4-5-5-5-5-5-5-5-5-----------| 


d#|-------------------| 
A#|-6-6-6-6-6-6-6-6---| 
F#|-7-7-7-7-7-7-7-7---| 
C#|-7-7-7-7-7-7-7-7---| 
G#|-5-5-5-5-5-5-5-5---| 
D#|-5-5-5-5-5-5-5-5---| 


VERSE / "Now that you're home...": 

d#|---------------------------------------------------------------------------| 
A#|---------------------------------------------------------------------------| 
F#|-6-6-6-6-6-6-6-6-6-6-6-6-6-6-6-6-----------------------------------7-7-7---| 
C#|-7-7-7-7-7-7-7-7-7-7-7-7-7-7-7-7-4-4-4-4-4-4-4-4-4-4-4-4-4-4-4-4-4-7-7-7---| 
G#|-x-x-x-x-x-x-x-x-x-x-x-x-x-x-x-x-4-4-4-4-4-4-4-4-4-4-4-4-4-4-4-4-4-5-5-5---| 
D#|-5-5-5-5-5-5-5-5-5-5-5-5-5-5-5-5-2-2-2-2-2-2-2-2-2-2-2-2-2-2-2-2-2---------| 

d#|---------------------------------------------------------------------------| 
A#|---------------------------------------------------------------------------| 
F#|---------------------------------------------------------------------------| 
C#|-7-7-7-7-7-7-7-7-7-7-7-7-7-7-7-7-4-4-4-4-4-4-4-4-4-4-4-4-4-4-4-4-4-4-4-4---| 
G#|-7-7-7-7-7-7-7-7-7-7-7-7-7-7-7-7-4-4-4-4-4-4-4-4-4-4-4-4-4-4-4-4-4-4-4-4---| 
D#|-5-5-5-5-5-5-5-5-5-5-5-5-5-5-5-5-2-2-2-2-2-2-2-2-2-2-2-2-2-2-2-2-2-2-2-2---| 


"No matter how far...": 

d#|---------------------------------------------------------------------------| 
A#|---------------------------------------------------------------------------| 
F#|-7---7---7-7-7---9---9---9-9-9---------------------------------------------| 
C#|-7---7---7-7-7---9---9---9-9-9---4---4---4-4-4---7-7---7-7-7-7-------------| 
G#|-5---5---5-5-5---7---7---7-7-7---4---4---4-4-4---7-7---7-7-7-7-------------| 
D#|-5---5---5-5-5---7---7---7-7-7---2---2---2-2-2---5-5---5-5-5-5-------------| 

d#|----------------------------------| 
A#|----------------------------------| 
F#|-7---7---7-7-7-9---9---9---9-9----| 
C#|-7---7---7-7-7-9---9---9---9-9----| 
G#|-5---5---5-5-5-7---7---7---7-7----| 
D#|-5---5---5-5-5-7---7---7---7-7----| 


Chorus / "Let it go back...": 

d#|---------------------------------------------------------------------------| 
A#|---------------------------------------------------------------------------| 
F#|---------------------------------6-6-6-6-6-6-6-6-7-7-7-7-7-7-7-7-----------| 
C#|-7-7-7-7-7-7-7-7-4-4-4-4-4-4-4-4-6-6-6-6-6-6-6-6-7-7-7-7-7-7-7-7-----------| 
G#|-7-7-7-7-7-7-7-7-4-4-4-4-4-4-4-4-4-4-4-4-4-4-4-4-5-5-5-5-5-5-5-5-----------| 
D#|-5-5-5-5-5-5-5-5-2-2-2-2-2-2-2-2-4-4-4-4-4-4-4-4-5-5-5-5-5-5-5-5-----------| 

d#|---------------------------------------------------------------------------| 
A#|---------------------------------------------------------------------------| 
F#|---------------------------------6-6-6-6-6-6-6-6-7-7-7-7-7-7-7-7-----------| 
C#|-7-7-7-7-7-7-7-7-4-4-4-4-4-4-4-4-6-6-6-6-6-6-6-6-7-7-7-7-7-7-7-7-----------| 
G#|-7-7-7-7-7-7-7-7-4-4-4-4-4-4-4-4-4-4-4-4-4-4-4-4-5-5-5-5-5-5-5-5-----------| 
D#|-5-5-5-5-5-5-5-5-2-2-2-2-2-2-2-2-4-4-4-4-4-4-4-4-5-5-5-5-5-5-5-5-----------| 

d#|---------------------------------------------------------------------------| 
A#|-------------------------------------------------6-6-6-6-6-6-6-6-----------| 
F#|---------------------------------7-7-7-7-7-7-7-7-7-7-7-7-7-7-7-7-----------| 
C#|-7-7-7-7-7-7-7-7-4-4-4-4-4-4-4-4-7-7-7-7-7-7-7-7-7-7-7-7-7-7-7-7-----------| 
G#|-7-7-7-7-7-7-7-7-4-4-4-4-4-4-4-4-5-5-5-5-5-5-5-5-5-5-5-5-5-5-5-5-----------| 
D#|-5-5-5-5-5-5-5-5-2-2-2-2-2-2-2-2-5-5-5-5-5-5-5-5-5-5-5-5-5-5-5-5-----------| 

d#|---------------------------------------------------------------------------| 
A#|---------------------------------------------------------------------------| 
F#|---------------------------------6-6-6-6-6-6-6-6-7-7-7-7-7-7-7-7-----------| 
C#|-7-7-7-7-7-7-7-7-4-4-4-4-4-4-4-4-6-6-6-6-6-6-6-6-7-7-7-7-7-7-7-7-----------| 
G#|-7-7-7-7-7-7-7-7-4-4-4-4-4-4-4-4-4-4-4-4-4-4-4-4-5-5-5-5-5-5-5-5-----------| 
D#|-5-5-5-5-5-5-5-5-2-2-2-2-2-2-2-2-4-4-4-4-4-4-4-4-5-5-5-5-5-5-5-5-----------| 


BRIDGE / "I've been on the run...": 

d#|---------------------------------------------------------------------------| 
A#|---------------------------------------------------------------------------| 
F#|-7-7-7-7-7-7-7-7-----------------------------------------------------------| 
C#|-7-7-7-7-7-7-7-7-7-7-7-7-7-7-7-7-4-4-4-4-4-4-4-4-4-4-4-4-4-4-4-4-4-2-2-2---| 
G#|-5-5-5-5-5-5-5-5-7-7-7-7-7-7-7-7-4-4-4-4-4-4-4-4-4-4-4-4-4-4-4-4-4-2-2-2---| 
D#|-5-5-5-5-5-5-5-5-5-5-5-5-5-5-5-5-2-2-2-2-2-2-2-2-2-2-2-2-2-2-2-2-2-0-0-0---| 

d#|---------------------------------------------------------------------------| 
A#|---------------------------------------------------------------------------| 
F#|-7-7-7-7-7-7-7-7-----------------------------------------------------------| 
C#|-7-7-7-7-7-7-7-7-7-7-7-7-7-7-7-7-4-4-4-4-4-4-4-4-4-4-4-4-4-4-4-4-4-2-2-2---| 
G#|-5-5-5-5-5-5-5-5-7-7-7-7-7-7-7-7-4-4-4-4-4-4-4-4-4-4-4-4-4-4-4-4-4-2-2-2---| 
D#|-5-5-5-5-5-5-5-5-5-5-5-5-5-5-5-5-2-2-2-2-2-2-2-2-2-2-2-2-2-2-2-2-2-0-0-0---| 


Solo:  

Guitar 1: 

d#|---------------------------------------------------------------------------| 
A#|---------------------------------------------------------------------------| 
F#|-7---7---7------7-7\-6-6---6/7\6-------------------------------------------| 
C#|-x---x---x------x-x\-x-x---x/x\x---7-7-7-7-7-7-7-7-7-7/9-9-9-9-9-9-9-------| 
G#|-5---5---5------5-5\-4-4---4/5\4---x-x-x-x-x-x-x-x-x-x/x-x-x-x-x-x-x-------| 
D#|-----------------------------------5-5-5-5-5-5-5-5-5-5/7-7-7-7-7-7-7-------| 

d#|--------------------------------------------------------------------------------------| 
A#|--------------------------------------------------------------------------------------| 
F#|-7---7---7------7-7/-9-9---9/11\9-/-14-14-14-14-13-13-13-13-16-16-16-16-14-14-14-14---| 
C#|-x---x---x------x-x/-x-x---x/x-\x-/-x--x--x--x--x--x--x--x--x--x--x--x--x--x--x--x----| 
G#|-5---5---5------5-5/-7-7---7/9-\7-/-12-12-12-12-11-11-11-11-14-14-14-14-12-12-12-12---| 
D#|--------------------------------------------------------------------------------------| 

d#|--------------------------------------------------------------------------------------| 
A#|--------------------------------------------------------------------------------------| 
F#|-14-14-14-14-13-13-13-13-11-11-11-11-9-9-9-9-9/10-10-10-10-10-10-7-7-7-7-7-7\6-6-6----| 
C#|--------------------------------------------------------------------------------------| 
G#|--------------------------------------------------------------------------------------| 
D#|--------------------------------------------------------------------------------------| 


Guitar 2: 

d#|---------------------------------------------------------------------------| 
A#|---------------------------------------------------------------------------| 
F#|-7---7---7---7-7-----------------------------------------------------------| 
C#|-7---7---7---7-7-7-7---7---7---4-4-4-4-4-4-4-4-4-4-4-4-4-4-4-4-4-2-2-2-----| 
G#|-5---5---5---5-5-7-7---7---7---4-4-4-4-4-4-4-4-4-4-4-4-4-4-4-4-4-2-2-2-----| 
D#|-5---5---5---5-5-5-5---5---5---2-2-2-2-2-2-2-2-2-2-2-2-2-2-2-2-2-0-0-0-----| 

d#|---------------------------------------------------------------------------| 
A#|---------------------------------------------------------------------------| 
F#|-7---7---7---7-7---------------9-9-9-9-9-9-9-9-9-9-9-9-9-9-9-9-9-9-9-9-----| 
C#|-7---7---7---7-7-7-7---7---7---9-9-9-9-9-9-9-9-9-9-9-9-9-9-9-9-9-9-9-9-----| 
G#|-5---5---5---5-5-7-7---7---7---7-7-7-7-7-7-7-7-7-7-7-7-7-7-7-7-7-7-7-7-----| 
D#|-5---5---5---5-5-5-5---5---5-----------------------------------------------| 

d#|---------------------------------------------------------------------------| 
A#|---------------------------------6-6-6-6-6-6-6-6-6-6-6-6-6-6-6-6-----------| 
F#|-7---7---7---7---7---7---7---7---7-7-7-7-7-7-7-7-7-7-7-7-7-7-7-7-----------| 
C#|-7---7---7---7---7---7---7---7---7-7-7-7-7-7-7-7-7-7-7-7-7-7-7-7-----------| 
G#|-5---5---5---5---5---5---5---5---5-5-5-5-5-5-5-5-5-5-5-5-5-5-5-5-----------| 
D#|---------------------------------------------------------------------------| 



Chorus / "Let it go back..." 

d#|---------------------------------------------------------------------------| 
A#|---------------------------------------------------------------------------| 
F#|---------------------------------6-6-6-6-6-6-6-6-7-7-7-7-7-7-7-7-----------| 
C#|-7-7-7-7-7-7-7-7-4-4-4-4-4-4-4-4-6-6-6-6-6-6-6-6-7-7-7-7-7-7-7-7-----------| 
G#|-7-7-7-7-7-7-7-7-4-4-4-4-4-4-4-4-4-4-4-4-4-4-4-4-5-5-5-5-5-5-5-5-----------| 
D#|-5-5-5-5-5-5-5-5-2-2-2-2-2-2-2-2-4-4-4-4-4-4-4-4-5-5-5-5-5-5-5-5-----------| 

d#|---------------------------------------------------------------------------| 
A#|---------------------------------------------------------------------------| 
F#|-----------------9-9-9-9-9-9-9-9-7-7-7-7-7-7-7-7-9-9-9-9-9-9-9-9-----------| 
C#|-7-7-7-7-7-7-7-7-9-9-9-9-9-9-9-9-7-7-7-7-7-7-7-7-9-9-9-9-9-9-9-9-----------| 
G#|-7-7-7-7-7-7-7-7-7-7-7-7-7-7-7-7-5-5-5-5-5-5-5-5-7-7-7-7-7-7-7-7-----------| 
D#|-5-5-5-5-5-5-5-5-7-7-7-7-7-7-7-7-5-5-5-5-5-5-5-5-7-7-7-7-7-7-7-7-----------| 

d#|---------------------------------------------------------------------------| 
A#|---------------------------------------------------------------------------| 
F#|---------------------------------7-7-7-7-7-7-7-7-7-7-7-7-7-7-7-7-----------| 
C#|-7-7-7-7-7-7-7-7-4-4-4-4-4-4-4-4-7-7-7-7-7-7-7-7-7-7-7-7-7-7-7-7-----------| 
G#|-7-7-7-7-7-7-7-7-4-4-4-4-4-4-4-4-5-5-5-5-5-5-5-5-5-5-5-5-5-5-5-5-----------| 
D#|-5-5-5-5-5-5-5-5-2-2-2-2-2-2-2-2-5-5-5-5-5-5-5-5-5-5-5-5-5-5-5-5-----------| 

d#|---------------------------------------------------------------------------| 
A#|---------------------------------------------------------------------------| 
F#|-----------------9-9-9-9-9-9-9-9-7-7-7-7-7-7-7-7-9-9-9-9-9-9-9-9-----------| 
C#|-7-7-7-7-7-7-7-7-9-9-9-9-9-9-9-9-7-7-7-7-7-7-7-7-9-9-9-9-9-9-9-9-----------| 
G#|-7-7-7-7-7-7-7-7-7-7-7-7-7-7-7-7-5-5-5-5-5-5-5-5-7-7-7-7-7-7-7-7-----------| 
D#|-5-5-5-5-5-5-5-5-7-7-7-7-7-7-7-7-5-5-5-5-5-5-5-5-7-7-7-7-7-7-7-7-----------| 


END ON: 

d#|-----| 
A#|-----| 
F#|-----| 
C#|-7---| 
G#|-7---| 
D#|-5---| 




************************************ 

| x   Dead note 
| /   Slide up 
| \   Slide down 
| ~   Vibrato 
| PM  Palm mute 


************************************ 
    	
fixar
fixar inscrever-se

enviado porenviado por: aleffederico
cifra enviadaCorrigida por: sem correções
logo top cifrasComente
ico música do artistaMúsicas deste artista
ico curtiuCurtiu?
ico destaqueDestaque
Petaxxon Comunicação Online

Cifras.com.br - Melhor e mais completo site de cifras e tablaturas do Brasil Mais de 1 milhão de acordes de músicas cadastradas desde 2003
As informações contidas no nosso site são colaborações de seus usuários e podem conter erros, sendo assim, não nos responsabilizamos sobre nenhuma destas.

close
menos
mais
close
Cor dos acordes:

Cor da letra:

close
Alinhar acordes a direita Alinhar acordes a esquerda Alinhar acordes em baixo Alinhar acordes no topo
close
  Mostrar todos os acordes Esconder acordes muito fáceis Esconder acordes fáceis Esconder acordes intermediários
redimensionar
glossário